rock
 
|tablatures   |lyrics   |discussion forums   |more tabs @ XGuitar.com

Judas Priest tabs

Metal Gods bass tab

Song: Metal Gods
Artist: Judas Priest
Album: British Steel
Tabbed by: David Hughes (almighty_bunghole@hotmail.com)

Timing isn't accurate listen to the song
May be tuned 1/2 step down although sounds
alright in standard to me

Intro
  <---------------------x2---------------------->
G|-----------------------------------------------|
D|-----------------------|-----------------------|
A|-7--7-7--7-7-7-5-5-5-5-|-7--7-7--7-7-7-7-7-7-7-|
E|-----------------------|-----------------------|

Verse
  <---------------------x4---------------------->
G|-----------------------------------------------|------|
D|-----------------------|-----------------------|------|
A|-7--7-7--7-7-7-5-5-5-5-|-7--7-7--7-7-7-7-7-7-7-|------|
E|-----------------------|-----------------------|-0-0-2|

G|-----------------------|-----------------------|
D|-----------------------|-----------------------|
A|-----------------------|---------------2-2-2-2-|
E|-2--2-2--2-2-2-2-2-2-2-|-2--2-2--2-2-2---------|

G|-----------------------|-----------------------|
D|-----------------------|-----------------------|
A|-----------------------|-----------------------|
E|-2--2-2--2-2-2-2-2-2-2-|-2--2-2--2-2-2-2-0--2--|

G|-----------------------|-----------------------|
D|-----------------------|-----------------------|
A|-----------------------|---------------2-2-2-2-|
E|-2--2-2--2-2-2-2-2-2-2-|-2--2-2--2-2-2---------|

G|-----------------------|-----------------------|
D|-----------------------|-----------------------|
A|-----------------------|-----------------------|
E|-2--2-2--2-2-2-2-2-2-2-|-2--2-2--2-0-----------|


Chorus
  <--------------------x2------------------->
G|---------------------|---------------------|
D|---------------------|---------------------|
A|---------------------|-5--5-5--5-5-5-5-5-5-|
E|-3--3-3--3-3-3-3-3-3-|---------------------|

Solo
  <--------------------x4------------------->
G|---------------------|---------------------|
D|---------------------|---------------------|
A|---------------------|---------------------|
E|-2--2-2--2-2-2-2-0-0-|-2--2-2--2-2-2-2-0-0-|

Outro
G|--------------|
D|--------------|
A|--------------|
E|-2-2-2-2-2--0-|

G|--------------------|------------------|
D|*-------------------|------------------|
A|*-------------------|----------------2-|
E|--2--2-2-2-2--2-2-2-|-2--2-2-2-2-2-2---|
			    1st Time	      2nd Time
G|------------------------|-----------------|----------|
D|-----------------------*|-----------------|----------|
A|-----------------------*|-----------------|----------|
E|-2--2-2-2-2--2-2-2-2-2--|-2-2-2-2-2-0---2-|-2--2-2-0-|


	     Structure:
[Sound Effects]

[Intro]

[Verse]
We've taken too much for granted
Amd all the time it had grown
From techno seeds we first planted
Evolved a mind of its own
Marching in the streets
Dragging iron feet
Laser beaming brains
Ripping men apart

[Verse]
From what had seemed our perfection
Where we could do as we pleased
In secrecy this infection
Was spreading like a disease
Hiding undeground
Knowing we'd be found
Fearing for our lives
Ringed by rock sites

[Chorus]
Metal Gods
Metal Gods

[Solo]

[Chorus]
Metal Gods
Metal Gods

[Verse]
Machines are taking over
With mankind in the command
In time they learn to discover
How they can make their demand
Better be the slaves to their wicked ways
Than meeting with our death
Engulfed in molten breath

[Outro]
  development and support by
dmitry ivanov