rock
 
|tablatures   |lyrics   |discussion forums   |more tabs @ XGuitar.com

Judas Priest tabs

Love Bites guitar tab

JUDAS PRIEST "Love Bites"
Tabbed by Rokas Velyvis (serva@fermentas.lt)
___________________________________________



1st & 2nd verses:
 When you feel safe    When you feel warm   That's when I rise   That's when I crawl
 Gliding on mist       Hardly a sound       Bringthe kiss        Evils abound
|---------------------|--------------------|---------------------|-----------------------|
|---------------------|--------------------|---------------------|-----------------------|
|---------------------|--------------------|---------------------|-----------------------|
|---------------6\----|---------------6\---|----------------4\---|-------------------6\--|
|---------------4\----|---------------4\---|----------------2\---|-------------------4\--|
|---------------------|--------------------|---------------------|-----------------------|

Chorus:
  In the dead of night        Love bites    Love bites
|----------------------|---------|-------------|-------------|
|----------------------|---------|-------------|-------------|
|----------------------|---------|-------------|-------------|
|-9--8---6----4--2-----|------4--|-6--------9--|-6-----------|
|-7--6---4----2--0-----|------2--|-4--------7--|-4-----------|
|----------------------|---------|-------------|-------------|

In the dead of night        Love bites
|----------------------|---------|-----------|------------|
|----------------------|---------|-----------|------------|
|----------------------|---------|-----------|------------|
|-9--8---6----4--2-----|------4--|-----------|------------|
|-7--6---4----2--0-----|------2--|-6---------|-6\---------|
|----------------------|---------|-4---------|-4\---------|

3rd, 4th, 5th & 6th verses:
 Into your room      Where in deep sleep     There you lie still    To you I creep
 Then I descend      Close to your lips      Across youI bend       You smile as I sip
 Now you are mine    In my control           One taste of your life And I own your soul
 Softly you stir     Gently you moan         Lust's in the air        Wake as I groan
|-------------------|-----------------------|-----------------------|----------------------|
|-------------------|-----------------------|-----------------------|----------------------|
|-------------------|-----------------------|-----------------------|----------------------|
|-------------6-6\--|-----------------6-6\--|-----------------4-4\--|----------------6-6\--|
|-------------4-4\--|-----------------4-4\--|-----------------2-2\--|----------------4-4\--|
|-------------------|-----------------------|-----------------------|----------------------|

Chorus:
  In the dead of night        Love bites    Love bites
|----------------------|---------|-------------|-------------|
|----------------------|---------|-------------|-------------|
|----------------------|---------|-------------|-------------|
|-9--8---6----4--2-----|------4--|-6--------9--|-6-----------|
|-7--6---4----2--0-----|------2--|-4--------7--|-4-----------|
|----------------------|---------|-------------|-------------|

  In the dead of night        Love bites
|----------------------|---------|----------|------------|
|----------------------|---------|------9\--|--7-7-7-----|
|----------------------|---------|------6\--|--4-4-4/6\--|
|-9--8---6----4--2-----|------4--|-6--------|------------|
|-7--6---4----2--0-----|------2--|-4--------|------------|
|----------------------|---------|----------|------------|

  In the dead of night        Love bites    Love bites
|----------------------|---------|-------------|-------------|
|----------------------|---------|-------------|-------------|
|----------------------|---------|-------------|-------------|
|-9--8---6----4--2-----|------4--|-6--------9--|-6-----------|
|-7--6---4----2--0-----|------2--|-4--------7--|-4-----------|
|----------------------|---------|-------------|-------------|

                            Bridge:
  In the dead of night      Love bites you  Invites you  To feast in the  night
|----------------------|---------|-----------|------------|-------------|-------------|
|----------------------|---------|-----------|------------|-------------|-------------|
|----------------------|---------|-----------|------------|-------------|-------------|
|-9--8---6----4--2-----|------4--|-6---------|-4----------|-2-----------|-------------|
|-7--6---4----2--0-----|------2--|-4---------|-2----------|-0-----------|-6-----------|
|----------------------|---------|-----------|------------|-------------|-4-----------|

Excites you   Delights you   It drains you to white  Love bites
|--------------|---------------|-------------------|-------------------|
|--------------|---------------|-------------------|-------------------|
|--------------|---------------|-------------------|-------------------|
|-6------------|-4-------------|-2-----------------|-------------------|
|-4------------|-2-------------|-0------------6----|-4----2------------|
|--------------|---------------|--------------4----|-2----0------------|

Gtr.I
|-----------------|-----------------|-----------------|-----------------|
|-----------------|-----------------|-----------------|-----------------|
|-----------------|-----------------|-----------------|-----------------|
|-----------------|-----------------|-----------------|-----------------|
|-4-4-4-4-4-4-4-4-|-4-4-4-4-4-4-4-4-|-4-4-4-4-4-4-4-4-|-4-4-4-4-4-4-4-4-|
|-----------------|-----------------|-----------------|-----------------|
P.M__________________________________________________________________ __


Riff1
Gtr.II (P.M. at 3rd string)
|-7-----4---------|-----------------|-7-----4---------|-----------------|
|-------------7-5-|---7---5-5-5-----|-------------7-5-|---7-7-5-5-5-----|
|---6-6---6-6-----|-6---6-------4-6-|---6-6---6-6-6-6-|-6-6-6-6-6-6-4-6-|
|-----------------|-----------------|-----------------|-----------------|
|-----------------|-----------------|-----------------|-----------------|
|-----------------|-----------------|-----------------|-----------------|

Gtr.I
|-----------------|-----------------|-----------------|-----------------|
|-----------------|-----------------|-----------------|-----------------|
|-----------------|-----------------|-----------------|-----------------|
|-----------------|-----------------|-----------------|-----------------|
|-4-4-4-4-4-4-4-4-|-4-4-4-4-4-4-4-4-|-4-4-4-4-4-4-4-4-|-4-4-4-4-4-4-4-4-|
|-----------------|-----------------|-----------------|-----------------|
P.M__________________________________________________________________ __



Gtr.II (P.M. at 3rd string)                                     (endof Riff1)
|-7-----4-----7-5-|-----------------|-7-----4---------|-----------------|
|-----------------|---7---5-5-5-----|-------------7-5-|---7-7-5-5-5-----|
|---6-6---6-6-----|-6---6-------4-6-|---6-6---6-6-6-6-|-6-6-6-6-6-6-4-6-|
|-----------------|-----------------|-----------------|-----------------|
|-----------------|-----------------|-----------------|-----------------|
|-----------------|-----------------|-----------------|-----------------|

Gtr.I
|-----------------|-----------------|-----------------|-----------------|
|-----------------|-----------------|-----------------|-----------------|
|-----------------|-----------------|-----------------|-----------------|
|-----------------|-----------------|-----------------|-----------------|
|-4-4-4-4-4-4-4-4-|-4-4-4-4-4-4-4-4-|-4-4-4-4-4-4-4-4-|-X\------X\------|
|-----------------|-----------------|-----------------|-----------------|
 P.M__________________________________________________



                                               Gtr.II
                                               |----------------|
                                               |----------------|
                                               |-------/6\------|
                                               |----------------|
                                               |----------------|
                                               |----------------|
Gtr.I
|--------------|----------------|--------------|----------------|
|--------------|----------------|--------------|----------------|
|--------------|----------------|--------------|----------------|
|--------------|----------------|--------------|----------------|
|-4---2-----4--|--2-----2h4-2---|-4---2-----4--|--2-----2h4-2---|
|---------4----|-----4--------4-|---------4----|-----4--------4-|


Riffs2&2A                                              (end of Riffs2&2A)
Gtrs.I&II                                              (play 4 times)
|--------------|----------------|--------------|----------------|
|--------------|----------------|--------------|----------------|
|-6---4-----6--|--4-----4h6-4---|-6---4-----6--|--4-----4h6-4---|
|---------6----|-----6--------6-|---------6----|-----6--------6-|
|-4---2-----4--|--2-----2h4-2---|-4---2-----4--|--2-----2h4-2---|
|---------4----|-----4--------4-|---------4----|-----4--------4-|

Gtrs.I&II
|--------------|-----------------|
|--------------|-----------------|
|-6---4-----6--|-----------------|
|---------6----|-----------------|
|-4---2-----4--|-----------------|
|---------4----|-----------------|


Riff3                                                           (end of Riff3) (P.M. on 5th string)

|-----------------|-----------------|-----------------|-----------------|
|-----------------|-----------------|-----------------|-----------------|
|-6-----4-----6---|---4-----4h5-5-4-|-6-----4-----6---|---4-----4h5-5-4-|
|-6-----4-----6---|---4-----4---4-4-|-6-----4-----6---|---4-----4---4-4-|
|---4-4---4-4---4-|-4---4-4---------|---4-4---4-4---4-|-4---4-4---------|
|-----------------|-----------------|-----------------|-----------------|

7th & 8th verses:
You knew at first sight You'd enjoy my attack That with my first bite
So come in my arms      I strike any hour     I will return
|----------------------|---------------------|----------------------|
|----------------------|---------------------|----------------------|
|-6-------4-------6----|----4-------4h5-5--4-|-4-------2-------4----|
|-6-------4-------6----|----4-------4---4--4-|-4-------2-------4----|
|----4-4-----4-4-----4-|-4-----4-4-----------|----2-2-----2-2-----2-|
|----------------------|---------------------|----------------------|

There'd be no turning back
To trap and devour
|------------------------|
|------------------------|
|----2--------4h5--5--4--|
|----2--------4----4--4--|
|-2-----2--2-------------|
|------------------------|

Chorus:
  In the dead of night        Love bites    Love bites
|----------------------|---------|-------------|-------------|
|----------------------|---------|-------------|-------------|
|----------------------|---------|-------------|-------------|
|-9--8---6----4--2-----|------4--|-6--------9--|-6-----------|
|-7--6---4----2--0-----|------2--|-4--------7--|-4-----------|
|----------------------|---------|-------------|-------------|

  In the dead of night        Love bites
|----------------------|---------|----------|------------|
|----------------------|---------|------9\--|--7-7-7/9\--|
|----------------------|---------|------6\--|--4-4-4/6\--|
|-9--8---6----4--2-----|------4--|-6--------|------------|
|-7--6---4----2--0-----|------2--|-4--------|------------|
|----------------------|---------|----------|------------|

  In the dead of night        Love bites    Love bites
|----------------------|---------|-------------|-------------|
|----------------------|---------|-------------|-------------|
|----------------------|---------|-------------|-------------|
|-9--8---6----4--2-----|------4--|-6--------9--|-6-----------|
|-7--6---4----2--0-----|------2--|-4--------7--|-4-----------|
|----------------------|---------|-------------|-------------|

In the dead of night        Love bites
|----------------------|---------|-----------|------------|
|----------------------|---------|-----------|------------|
|----------------------|---------|-----------|------------|
|-9--8---6----4--2-----|------4--|-----------|------------|
|-7--6---4----2--0-----|------2--|-6---------|-6\---------|
|----------------------|---------|-4---------|-4\---------|

Riff3 (10 times). 
Riffs2&2A (12 times).

Any questions and suggestions are welcome.
Rokas Velyvis
  development and support by
dmitry ivanov