rock
 
|tablatures   |lyrics   |discussion forums   |more tabs @ XGuitar.com

Judas Priest tabs

Living After Midnight guitar tab

Since I've taken several songs from here I thought I'd start posting.

		Living After Midnight
			by
		    Judas Priest
		       from
		   British Steel

Most of this song was transcribed by me from watching K.K. and Glenn play.
The harder parts (solo) were taken from a song book.

I'll start with this song because I'm doing it from memory and it's easy.

You'll have to listen to the song to get the timing/rhythm correct.

intro:
    E5   D5 A5   B5______   ___
                 |1, 2     |3
e|-----------------------|--------------|
B|-----------------------|--------------|
G|o--9-9--7--2-2--4-9---o|--4-----4-4---|
D|o--9-9--7--2-2--4-9---o|--4-----4-4---|
A|---7-7--5--0-0--2-7----|--2-----2-2---|
E|---0-0------------0----|--------------|

chorus: (same as intro except for part |3|)

e|-------------------|
B|-------------------|
G|--4--4----4-4--4---|
D|--4--4----4-4--4---|
A|--2--2----2-2--2---|
E|-------------------|

verse:
                                       G5 E5 PM-----|      PM--------|
e|--------------------------------------------------------------------|
B|--------------------------------------------------------------------|
G|--4-9---9-9-9-9-9-9-9-9-9-9-9-9-9-9-9-------------------------------|
D|--4-9---9-9-9-9-9-9-9-9-9-9-9-9-9-9-9--5-2-----------5-2------------|
A|--2-7---7-7-7-7-7-7-7-7-7-7-7-7-7-7-7--5-2-----------5-2------------|
E|----0---0-0-0-0-0-0-0-0-0-0-0-0-0-0-0--3-0--0-0-0-0--3-0--0-0-0-0-0-|


                                          PM-----|      PM------|
e|---------------------------------------------------------------|
B|---------------------------------------------------------------|
G|-----9-9-9-9-9-9-9-9-9-9-9-9-9-9-9-----------------------------|
D|-----9-9-9-9-9-9-9-9-9-9-9-9-9-9-9--5-2-----------5-2----------|
A|-----7-7-7-7-7-7-7-7-7-7-7-7-7-7-7--5-2-----------5-2----------|
E|-----0-0-0-0-0-0-0-0-0-0-0-0-0-0-0--3-0--0-0-0-0--3-0--0-0-0-0-|

pre-chorus:

        F#5
e|--------------------|
B|--------------------|
G|-----------4---4-9--|
D|--5----4---4---4-9--|
A|--5----4---2---2-7--|
E|--3----2---------0--|

bridge:                      ____________________________ ____
                             |1,2,3                      | 4
        D5                     PM-------|       PM-----|  
e|-------------------------------------------------------|-----------|
B|------3--3------3--3--3--------------------------------|-----------|
G|o--2--2--2-2--2-2--2--2-2---9-------------------------o|--4--7--4--|
D|o--2--0--0-2--2-0--0--0-2---9------------5--2---------o|--4--7--4--|
A|---0-------0--0---------0---7------------5--2----------|--2--5--2--|
E|----------------------------0-0-0-0-0-0--3--0-0-0-0-0--|-----------|

solo:

e|----------------------------------------------------------------------|
B|----------------------------------------------------------------------|
G|---14b(15)-14b(15)-12/14-12----9-9----9-11b(12)-11b(12)-(11)-9/11-9~~-|
D|----------------------------14-----11---------------------------------|
A|----------------------------------------------------------------------|
E|----------------------------------------------------------------------|

e|------------------------------------------------------15-17-22-17-15-19~~-|
B|--------------------------------------------------------------------------|
G|-----9-11--14b(15)-14b(15)-12/14-12----9-9----9----9\---------------------|
D|--11--------------------------------14-----11---11---\--------------------|
A|--------------------------------------------------------------------------|
E|--------------------------------------------------------------------------|
						     (long slide)
legend:
------
n1b(n2) - note1 is played and bent to the pitch of note2
/ - slide up
\ - slide down
(a) - a is an artificial harmonic
~ - vibrato

order of play:
-------------
intro
chorus
verse
pre-chorus
chorus
verse
pre-chorus
chorus
bridge
solo
verse
pre-chorus
chorus (3x and fade)


comments and questions are welcome!


P.S:  Does anyone know "The Clairvoyant" by Iron Maiden?

--
Mike
MB2@vaxa.clarion.edu
  development and support by
dmitry ivanov