rock
 
|tablatures   |lyrics   |discussion forums   |more tabs @ XGuitar.com

Judas Priest tabs

Leather Rebel guitar tab

JUDAS PRIEST - LEATHER REBEL
(Painkiller, 1990)

Key
= after note = vibrato
^ after note = heavy vibrato
\\ = slide down
/ = slide up
+ = tap
h = hammer
p = pull
n = natural harmonic
s = pinching harmonic (squeal)
* = tremolo pick
t = trill
b = bend
|-3-| = triplet

n number above the tab = play the first part then the first finishing part
			 play the first part a second time and then play the second finishing part
			 etc.

Riff 1

E -------------------------------------------------------------------------------------------------------------------------
B -------------------------------------------------------------------------------------------------------------------------
G -------------------------------------------------------------------------------------------------------------------------
D -------------------------------------------------------------------------------------------------------------------------
A -1212-1212-1212-1412-1212-1212-1512-1212-1212-1712-1212-1212-15-12-17--1212-1212-1212-1412-1212-1212-1512-1212-1212-1712-
E -------------------------------------------------------------------------------------------------------------------------

E ----------------
B ----------------
G ----------------
D ----------------
A -1212-15-14-12--
E ----------------

Riff 2

E ------------------------------------------------------------------------------------------------------------------
B ------------------------------------------------------------------------------------------------------------------
G ------------------------------------------------------------------------------------------------------------------
D ------------------------------------------------------------------------------------------------------------------
A ------------------------------------------------------------------------------------------------------------------
E -00-00-19-00-00-17-00-00-15-00-00-14-0-12---00-00-19-00-00-17-00-00-15-00-00-14-0-10---00-00-19-00-00-17-00-00-15-

E --------------------------------------
B --------------------------------------
G --------------------------------------
D -----------------5--5---7--9----------
A -----------------5--5---7--9----------
E -00-00-14-0-12---3--3---5--7----3-2===

Riff 2A

E ------------------------------------------------------------------------------------------------------------------
B ------------------------------------------------------------------------------------------------------------------
G ------------------------------------------------------------------------------------------------------------------
D ------------------------------------------------------------------------------------------------------------------
A ------------------------------------------------------------------------------------------------------------------
E -00-00-19-00-00-17-00-00-15-00-00-14-0-12---00-00-19-00-00-17-00-00-15-00-00-14-0-10---00-00-19-00-00-17-00-00-15-

E -----------------
B -----------------
G -----------------
D -----------------
A -----------------
E -0-14-0-10-0-14--

Riff 2B

E ------------------------------------------------------------------------------------------------------------------
B ------------------------------------------------------------------------------------------------------------------
G ------------------------------------------------------------------------------------------------------------------
D ------------------------------------------------------------------------------------------------------------------
A ------------------------------------------------------------------------------------------------------------------
E -00-00-19-00-00-17-00-00-15-00-00-14-0-12---00-00-19-00-00-17-00-00-15-00-00-14-0-10---00-00-19-00-00-17-00-00-15-

E ----------------- ---------
B ----------------- ---------
G ----------------- -9-9-7-9-
D ----------------- -9-9-7-9-
A ----------------- -7-7-5-7-
E -0-14-0-10-0-14-- ---------

Riff 3

E -------------------------------------------------------------------------------------
B -------------------------------------------------------------------------------------
G -4-------4-------4-------4-------4----4----4-------4-------4-------4-------4----2----
D -4-------4-------4-------4-------4----4----4-------4-------4-------4-------4----2----
A -2-22-22-2-22-22-2-22-22-2-22-22-2-22-2-22-2-22-22-2-22-22-2-22-22-2-22-22-2-22-0-00-
E -------------------------------------------------------------------------------------

E ------------------------------------------------------------------
B ------------------------------------------------------------------
G -----------------------------------------------------4---4---4----
D -5-------5-------5-------5---------------------------4---4---4----
A -5-------5-------5-------5-------------------0---0---2---2---2----
E -3-33-33-3-33-33-3-33-33-3-33-33-33-33-33-33-2---2----------------

Riff 4

E -------------------------------------------------------------------------------------------------------------
B -------------------------------------------------------------------------------------------------------------
G ----------------------------------5-------------------------12-------------------------------------------5---
D -------2-------2-------5-------7--5---------2-------2-------12---12-----------2-------2-------5-------7--5---
A -------2-------2-------5-------7--3---------2-------2-------10---12-----------2-------2-------5-------7--3---
E -00-00-0-00-00-0-00-00-3-00-00-5------00-00-0-00-00-0-00-00------10-----00-00-0-00-00-0-00-00-3-00-00-5------

E ----------------------
B ----------------------
G -2------5-4-----------
D -2------5-4-----------
A -0------3-2-----------
E ----------------3-2===

Riff 4A

E -------------------------------------------------------------------------------------------------------------
B -------------------------------------------------------------------------------------------------------------
G ----------------------------------5-------------------------12-------------------------------------------5---
D -------2-------2-------5-------7--5---------2-------2-------12---12-----------2-------2-------5-------7--5---
A -------2-------2-------5-------7--3---------2-------2-------10---12-----------2-------2-------5-------7--3---
E -00-00-0-00-00-0-00-00-3-00-00-5------00-00-0-00-00-0-00-00------10-----00-00-0-00-00-0-00-00-3-00-00-5------

E -------------------------------------
B -------------------------------------
G -2-----5--4--------------------------
D -2-----5--4--------------------------
A -0-----3--2----------3-6-5-6-----3---
E -----------------------------3-6-----

Riff 4B

E -------------------------------------------------------------------------------------------------------------
B -------------------------------------------------------------------------------------------------------------
G ----------------------------------5-------------------------12-------------------------------------------5---
D -------2-------2-------5-------7--5---------2-------2-------12---12-----------2-------2-------5-------7--5---
A -------2-------2-------5-------7--3---------2-------2-------10---12-----------2-------2-------5-------7--3---
E -00-00-0-00-00-0-00-00-3-00-00-5------00-00-0-00-00-0-00-00------10-----00-00-0-00-00-0-00-00-3-00-00-5------

E -----------------------
B -----------------------
G -2-----5---------------
D -2-----5---------------
A -0-----3---6-4-2-4-2-0-
E -----------7-5-3-5-3-2-
             |-3-| |-3-|

Riff 5

E ------------------------------------------------------------------------------------------
B ------------------------------------------------------------------------------------------
G ------------------------------------------------------------------------------------------
D -5---3----------------5---3----------------0---1---3---1---0------------------------------
A ---------6---5---3------------6---5---3-------------------------6---5---3-----3-6-----3---
E --------------------------------------------------------------------------3-6-----3-6-----

Riff 5A

E ------------------------------------------------------------------------------------------
B ---------------------------------------------------6--------------------------------------
G -------------------------------------------7---8-------8---7----8---7---5-----5-8-----5---
D -5---3----------------5---3-----------------------------------------------5-8-----5-8-----
A ---------6---5---3------------6---5---3---------------------------------------------------
E ------------------------------------------------------------------------------------------

Riff 5B

E -------------------------------------------------------------------------------
B -------------------------------------------------------------------------------
G -------------------------------------------------------------------------------
D -5---3----------------5---3----------------12---13---15---13---12----13---12---
A ---------6---5---3------------6---5---3----------------------------------------
E -------------------------------------------------------------------------------

Riff 5C

E ----------8---11---8-------------8---11---8----10---11---13---11---10----11---10---
B -8---11-----------------8---11-----------------------------------------------------
G -----------------------------------------------------------------------------------
D -----------------------------------------------------------------------------------
A -----------------------------------------------------------------------------------
E -----------------------------------------------------------------------------------

Riff 6

E -------------------------------------------------------------------------------------------------
B -------------------------------------------------------------------------------------------------
G -------------------------------------------------------------------------------------------------
D -5---5---5---5---5-6-6--5---5---5---5---5-6-6--9---9---9---9---9-10-10--9---9---9---9---9-10-10--
A -5---5---5---5---5-6-6--5---5---5---5---5-6-6--7---7---7---7---7-8 -8 --7---7---7---7---7-8 -8 --
E -3---3---3---3---3-4-4--3---3---3---3---3-4-4----------------------------------------------------

Order

Riff 1 x 2
Riff 2 x 3
Riff 3 x 1
Riff 4 x 1
Riff 2 x 2
Riff 3 x 1
Riff 4A x 1
Riff 5/5A x 1
Riff 5B/5C x 1
Solo over Riff 6 x 1
Riff 3 x 1
Riff 4 x 1
Riff 4B x 1
Riff 2A x 1
Riff 2B x 1

Tabbed by Radiohater 2002
  development and support by
dmitry ivanov