rock
 
|tablatures   |lyrics   |discussion forums   |more tabs @ XGuitar.com

Judas Priest tabs

Island Of Domination guitar tab

Band:  Judas Priest
Album: Sad Wings Of Destiny
Song:  Island Of Domination

Copyright (c)  CBS (1976)

Transcribed By: Steve
Email:          stephen.elvidge1@ntlworld.com



PM = Palm Mute
\ = Slide Down
/ = Slide Up
p = Pull Off
h= Hammer On
~~~ = Vibrato

Normal Tuning

Intro

  Guitar 1 gradual fade in with phaser effect(Palm mute throughout)
E[--------------------------------------------------------------------
B[--------------------------------------------------------------------
G[--------------------------------------------------------------------
D[--------------------------------------------------------------------
A[------------------------------------0-0-0-0-0-0-0-0-0-0-0-0-0-0-0-0-
E[--3-3-3-3-3-3-3-3-3-3-3-3-3-3-3-3-3---------------------------------
 [
 [ Guitar 2                                                  h
E[--------------------------------------------------------------------
B[--------------------------------------------------------------------
G[------------------------------------2----(2)----2-2--5-4p2-4p2p0--2-
D[------------------------------------2----(2)----2-2---------------2-
A[------------------------------------0----(0)----0-0---------------0-
E[--------------------------------------------------------------------

  Guitar 1
E[--------------------------------------------------------------------
B[--------------------------------------------------------------------
G[--------------------------------------------------------------------
D[--------------------------------------------------------------------
A[-0-0-0-0-0-0-0-0-0-0-0-0-0-0-0-0-0-0-7-7-7-7-7-7-7-7-7-7-7-7-7-7-7--
E[--------------------------------------------------------------------
 [Guitar 2
 [                              h
E[--------------------------------------------------------------------
B[--------------------------------------------------------------------
G[-------------------2-9--9p7p5-7p5\4---------------------------------
D[-------------------2-7----------------------------------------------
A[-------------------0------------------------------------------------
E[--------------------------------------------------------------------

  Guitar 1
     h
E[----------------------------------------------------------------------
B[----------------------------------------------------------------------
G[----------------------------------------------------------------------
D[-5-7------------------------------------------------------------------
A[-----0--000-3-000----------0-0-0-------3-3-3-2-2-2-2-2-2-0-0-0-0-0-0--
E[------------------3--0-0-0-------3-3-3--------------------------------
 [
 [Guitar 2
 [   h
E[----------------------------------------------------------------------
B[----------------------------------------------------------------------
G[-----2------5--------------2-----------5-----4-----4-----2-----2------
D[-5-7-2------5-----5--2-----2----5------5-----4-----4-----2-----2------
A[-----0--000-3-000-5--2-----0----5------3-----2-----2-----0-----0------
E[------------------3--0----------3-------------------------------------

Main Riff

  [pm]       h h ~~~      h [-----PM----]
E---------------------------------------------
B---------------------------------------------
G---------------------------------------------
D----------------5----------------------------
A------7p5p0-5-7----7p5p0-7--7-5p0------------
E--0-0-----------------------------7-6-5------ RPT 2 X before vocals enter.
                                               RPT 7 X
Main riff going into chorus

  [pm]       h h ~~~      h [-pm--]
E---------------------------------------------
B---------------------------------------------
G---------------------------------------------
D----------------5------------------12\-------
A------7p5p0-5-7----7p5p0-7--7-5p0--10\-------
E--0-0----------------------------------------


Chorus

E-------------------------------------------
B-------------------------------------------
G--5----(5)--------------2--(2)-------------
D--5----(5)--------------2--(2)-------------
A--3----(3)--------------0--(0)----2/6--(6)-
E--------------3--2--0----------------------

Post chorus Riff

   [pm]      h
E------------------------
B------------------------
G------------------12\---
D--------------5---12\---
A------7p5p0-5-5---10\---
E--0-0------------------- RPT 2 X

After second chorus and post chorus riff

 Guitar 1 palm mute with phaser
E[---------------------------------------------
B[---------------------------------------------
G[---------------------------------------------
D[---------------------------------------------
A[--0-0-0-0-0-0-0-0-0-0-0-0-0-0-0-0-0-0-0-0-0--
E[---------------------------------------------
 [
 [Guitar 2                                      Last time
E[---------------------------------------------]------------------------
B[---------------------------------------------]------------------------
G[--9--9-\8---12-12-\11---9--9-\8---12-11/12---]---9--9-\8--------------
D[--7--7-\6---10-10-\9----7--7-\6---10-9-/10---]---7--7-\6---10-9-7-6---
A[---------------------------------------------]------------------------
E[---------------------------------------------]------------------------

Half time descending part
E--------------------------------------------
B--------------------------------------------
G--------------------------------------------
D--------------------------------------------
A----7-6-----7-6----/6-5---5-4---4-3---3-2---
E--0------5-------4------3-----2-----1-------

Interlude
      RPT 2 X before vocals enter then RPT 4 X
                                                                      h
E-----------------------------------------------------------------------------
B-----------------------------------------------------------------------------
G--------------------------------------------------------------9-9------2--\--
D---------------------------------------------------------2----7-7------2--\--
A--2------------------2--2----2-------------------2-------0----0-0--5-6-0--\--
E--0----3----5----3p--0--0----0----3----5----3p---0--3------------------------

RPT Verse
PPT Chorus
Ending is just an E chord left to fade.
  development and support by
dmitry ivanov