rock
 
|tablatures   |lyrics   |discussion forums   |more tabs @ XGuitar.com

Judas Priest tabs

Hot Rockin guitar tab

Intro                          Verse
---------------------------||-------------------------------------------
---------------------------||-------------------------------------------
---------------------------||--0h2-----2-----2-----2-----5--5-----------
---------------------------||--0-2-----2-----2-----2-----5--5-----------
7--7-----7--7-----5--5-----||--0----0--0--0--0--0--0--0--3--3--5--------
5--5-----5--5-----3--3-----||----------------------------------0h3------
                                    PM A's

                               Chorus
---------------------------||-------------------------------------------
---------------------------||--6--------4-----------6------/8-----------
---------------------5--5--||--5--------3-----------5-------7-----------
---------------------5--5--||-----0--0-----0--0--0-----0--0----0--0-----
---5-----5-----5-----3--3--||-------------------------------------------
3--3--3--3--3--3--3--------||-------------------------------------------
PM 3's                             PM D's


                                           Bridge
---------------------------------------||-------------------------------
---6--------4--------------8-----8--8--||-------------------------------
---5--------3--------------7-----7--7--||-------------------------------
0-----0--0-----0--0--0--0--------------||--------------------------5----
---------------------------------------||--7-----7--7--7--7--7--7--5----
---------------------------------------||--0-----0--0--0--0--0--0-------
                                           PM -------------------



------------||----------------------------------------------------------
------------||----------------------------------------------------------
------------||----------------------------------------------------------
------5--7--||----------------------------------------------------------
7--7--5--7--||----------------------------------------------------------
0--0--------||----------------------------------------------------------
PM--
  development and support by
dmitry ivanov