rock
 
|tablatures   |lyrics   |discussion forums   |more tabs @ XGuitar.com

Judas Priest tabs

Hot Rockin bass tab

Judas Priest

Hot Rockinī

tabbed by Live Wire

Intro:

E:|--5-4---5-4------4-2---|
A:|-----------------------|
D:|-----------------------|
G:|-----------------------|

Verse:
Repeat util the chorus

E:|-3-3-3-3-3-3-3-3-3-3-3-3-3----------------------------------|
A:|---------------------------4-4-4-4-4-4-4-4-4-4-4-4-4-4-4-4--|
D:|------------------------------------------------------------|
G:|------------------------------------------------------------|

Chrous:

E:|-3-3-3-3---3-3-3-3-----3-3-3-3-3-3----|
A:|---------5---------7------------------|
D:|-----------------------------------2--|
G:|--------------------------------------|

Guitar solo:
play it like the verse

Outro:
Just like the intro........
  development and support by
dmitry ivanov