rock
 
|tablatures   |lyrics   |discussion forums   |more tabs @ XGuitar.com

Judas Priest tabs

Heroes End guitar tab

                               HEROES END
    From the album Stained class

Transcribed by Patric Liljestrand


         Intro                                                          
E---||------|--------|-----|--------------------|-----|--------|--------
B---||------|--------|-----|--------------------|-----|--------|--------
G---||*--2--|--2--0--|--2--|--------5--------7--|--2--|--2--0--|--2-----
D---||*--2--|--2--0--|--2--|--------5--------7--|--2--|--2--0--|--2-----
A---||---0--|--0-----|--0--|--3--3--3--5--5--5--|--0--|--0-----|--0-----
E---||------|-----3--|-----|--------------------|-----|-----3--|--------
                                                                        

                                   Verse                                
E---|---------------------||--||------------------------|---------------
B---|---------------------||--||------------------------|---------------
G---|-----------------5--*||--||*--------------------2--|--3-----7------
D---|-----7--6--5-----5--*||--||*--------------------2--|--3-----7------
A---|--0--5--4--3--7------||--||---0--2--3-----0--0-----|-----0---------
E---|---------------------||--||------------------------|---------------
                                                                        

           4x                                                           
E----------||--||------------------------|------||----------------------
B----------||--||------------------------|------||----------------------
G---6--5--*||--||*-----------------------|-----*||----------------------
D---6--5--*||--||*-----------------3-----|--2--*||----------------------
A----------||--||---0--2--3--------------|------||--0--2--3-----0--0----
E----------||--||---------------1-----0--|------||----------------------
                                                                        

                          4x       Chorus                               
E------|------------------||--||------------------------|---------------
B------|------------------||--||------------------------|---------------
G---2--|--3-----7--6--5--*||--||*-----------------------|---------------
D---2--|--3-----7--6--5--*||--||*-----------------------|---------------
A------|-----0------------||--||---7-----7--5--7-----7--|--7--5--7------
E------|------------------||--||------0-----------------|---------------
                                                                        

                 4x       Verse              Chorus                     
E----------------||--||-------------||--||----------------||--||--------
B----------------||--||-------------||--||----------------||--||--------
G---------------*||--||*-----------*||--||*--------------*||--||*-------
D---5-----------*||--||*-----------*||--||*--------------*||--||*-------
A------7--5--7---||--||-------------||--||----------------||--||--------
E----------------||--||-------------||--||----------------||--||--------
                                                                        

    (solo)                   4x                                         
E------------|---------------||--||------|--------------|---------------
B------------|---------------||--||------|--------------|---------------
G------------|-----------0--*||--||*-----|--------------|---------------
D------------|--------0--0--*||--||*-----|--------------|---------------
A---------0--|--1--2---------||--||---2--|--2--2--2--2--|--2--2--2------
E---0--3-----|---------------||--||---0--|--0--0--0--0--|--0--0--0------
                                                                        

                                                                        
E------|--------------|--------------|-----------------------|----------
B------|--------------|--------------|-----------------------|----------
G------|--------------|--------------|-----------------------|----------
D------|--------------|--------------|-----------------------|----------
A---2--|--2--2--2--2--|--2--2--2--2--|-----------------------|--0--2----
E---0--|--0--0--0--0--|--0--0--0--0--|--0-----0--3--0--0--3--|----------
                                                                        

                       4x                                               
E----------------------||--||------------------------|------------------
B----------------------||--||------------------------|------------------
G---------------------*||--||*-----------------------|------------------
D------0--------------*||--||*-----------------------|-----------0------
A---3--------0---------||--||------------------------|--0--2--3---------
E---------3-----2--3---||--||---0-----0--3--0--0--3--|------------------
                                                                        

                 3x       Verse              Chorus                     
E----------------||--||-------------||--||----------------||--||--------
B----------------||--||-------------||--||----------------||--||--------
G---------------*||--||*-----------*||--||*--------------*||--||*-------
D---------------*||--||*-----------*||--||*--------------*||--||*-------
A------0---------||--||-------------||--||----------------||--||--------
E---3-----2--3---||--||-------------||--||----------------||--||--------
                                                                        

    (solo)                                                              
E------------|---------------||--||-------------------------------------
B------------|---------------||--||-------------------------------------
G------------|-----------0--*||--||*------------------------------------
D------------|--------0--0--*||--||*------------------------------------
A---------0--|--1--2---------||--||-------------------------------------
E---0--3-----|---------------||--||-------------------------------------
  development and support by
dmitry ivanov