rock
 
|tablatures   |lyrics   |discussion forums   |more tabs @ XGuitar.com

Judas Priest tabs

Hell Bent For Leather bass tab

Artist: Judas Priest
Song: Hell Bent For Leather
Album: Hell Bent For Leather
Tabbed By: Akai Cadieux(devilsson1562@netscape.net)

any Comments or questions feel free to email them to me


Intro

G|---------|---------|---------|---------|---------|---------|---------|---------|
D|---------|---------|---------|---------|---------|---------|---------|---------|
A|---------|---------|---------|---------|---------|---------|---------|---------|
E|---0~----|---1~----|---2~----|---3~----|---4~----|---5~----|---1~----|---0~----|

G|---------|---------|---------|---------|---------|
D|---------|---------|---------|---------|---------|
A|-3---2---|---0-----|----0----|---0-----|--0-3--2-|
E|---------|---------|---------|---------|---------|

Verse

G|-------------------|-------------------|
D|-------------------|-------------------|Repeat  1x
A|-0--0-0-0-0-0-0-0--|-0-0-0-0-0-0-0-0---|
E|-------------------|-------------------|

G|-------------------|
D|-------------------|
A|-0-0-0-0---3--2----|
E|-------------------|

Pre-Chorus

G|-------------------|-------------------|-------------------|-------------------|
D|-------------------|-------------------|-------------------|-------------------|
A|-5--5-5---5-5-5-5--|-5-5-5-5-3----5----|---5-5-5-5-5-5-5---|-5p3--3----3---3---|
E|-------------------|-------------------|-------------------|-------------------|

G|-------------------|-------------------|-------------------|-------------------|
D|-------------------|-------------------|-------------------|------5--5-(5~)----|
A|-5--5-5---5-5-5-5--|-5-5-5-5-3----5----|---5-5-5-6-6-6-7---|-(7)-------------0-|
E|-------------------|-------------------|-------------------|-------------------|

Chorus

G|-------------------|-------------------|---------------0---|-------------------|
D|-------------------|-------------------|------0------2-----|------0------0-----|
A|-(0)-0-0-0-0-0-0---|-0-0-0-0-0-0-0-----|----2---3-(3)------|----0----------2-0-|
E|-------------------|----------------3--|-(3)-------------1-|-(1)----3-(3)------|

Verse

G|-------------------|-------------------|
D|-------------------|-------------------|Repeat  1x
A|-0--0-0-0-0-0-0-0--|-0-0-0-0-0-0-0-0---|
E|-------------------|-------------------|

G|-------------------|
D|-------------------|
A|-0-0-0-0---3--2----|
E|-------------------|

Pre-Chorus

G|-------------------|-------------------|-------------------|-------------------|
D|-------------------|-------------------|-------------------|-------------------|
A|-5--5-5---5-5-5-5--|-5-5-5-5-3----5----|---5-5-5-5-5-5-5---|-5p3--3----3---3---|
E|-------------------|-------------------|-------------------|-------------------|

G|-------------------|-------------------|-------------------|-------------------|
D|-------------------|-------------------|-------------------|------5--5-(5~)----|
A|-5--5-5---5-5-5-5--|-5-5-5-5-3----5----|---5-5-5-6-6-6-7---|-(7)-------------0-|
E|-------------------|-------------------|-------------------|-------------------|

Chorus

G|-------------------|-------------------|---------------0---|-------------------|
D|-------------------|-------------------|------0------2-----|------0------0-----|
A|-(0)-0-0-0-0-0-0---|-0-0-0-0-0-0-0-----|----2---3-(3)------|----0----------2-0-|
E|-------------------|----------------3--|-(3)-------------1-|-(1)----3-(3)------|

1st Bridge

G|-------------------||------------------|-------------------|-------------------|
D|------0------0-----||------------------|-------------------|-------------------|
A|----0----------2---||------------------|-------------------|-------------------|
E|-(1)----3-(3)----0-||--0-0-0--0-0-0-0--|--1--1-1--1-1-1-1--|--2--2-2--2-2-2-2--|

G|-------------------|-------------------|-------------------|-------------------|
D|-------------------|-------------------|-------------------|-------------------|
A|-------------------|-------------------|-------------------|-------------------|
E|--3--3-3--3-3-3-3--|--4--4-4--4-4-4-4--|--5--5-5--5-5-5-5--|--1--1-1--1-1-1-1--|

G|-------------------|---------|
D|-------------------|---------|
A|-------------------|---------|
E|--0--0-0--0-0-0-0--|----0----|

Guitar Solo: You Play


G|------------|------------|------------|------------|
D|------------|------------|------------|------------|
A|----0-------|-----0------|-----7------|-----7------|
E|------------|------------|------------|------------|

G|------------|------------|------------|------------|
D|------------|------------|------------|------------|
A|------------|------------|--5---------|-----5------|
E|----3-------|---3--------|------------|------------|

G|-------------------|
D|-------------------|Repeat 3x
A|-------------------|
E|--0--0-0--0-0-0-0--|

2nd Bridge

G|-------------------||------------------|-------------------|-------------------|
D|------0------0-----||------------------|-------------------|-------------------|
A|----0----------2---||------------------|-------------------|-------------------|
E|-(1)----3-(3)----0-||--0-0-0--0-0-0-0--|--1--1-1--1-1-1-1--|--2--2-2--2-2-2-2--|

G|---------------------------------------|--------------|
D|---------------------------------------|--------------|
A|-----19-xx---xxx---xxx---xxx-----------|-xxx---xx-2---|
E|---------------------------------------|------------0-|

Chorus

G|-------------------|-------------------|---------------0---|-------------------|
D|-------------------|-------------------|------0------2-----|------0------0-----|
A|----0-0-0-0-0-0----|-0-0-0-0-0-0-0-----|----2---3-(3)------|----0----------2-0-|
E|-------------------|----------------3--|-(3)-------------1-|-(1)----3-(3)------|

Outro

G|-------------------||-------------------|-------------------|----------------0---|
D|------0-----0------||-------------------|-------------------|------0-------2-----|
A|----0---------2--0-||-(0)-0-0--0-0-0-0--|-0-0-0--0-0-0-0----|----2----3-(3)------|
E|-(1)---3-(3)-------||-------------------|----------------3--|-(3)--------------1-|

G|-------------------|---------------------|-------------------|----------------------|
D|------0------0-----|-------0------0------|----2-0------------|--------0-(0)-0-------|
A|----0----------2-0-|-----0----------2----|--------3-(3)-3-3--|-(3)--2-----------0-0-|
E|-(1)----3-(3)------|-(1)-----3-(3)----0--|-(0)-----------3---|----3-----------3-----|

Thats it. Great song 2 play once you get the hang of it.
  development and support by
dmitry ivanov