rock
 
|tablatures   |lyrics   |discussion forums   |more tabs @ XGuitar.com

Judas Priest tabs

Grinder guitar tab

Judas Priest - Grinder Solo - Album : British Steel
Transcribed by : Jerry Moffett
___________________________________________________

Legend
------

 h  = hammer-on
 p  = pull-off
 b  = bend
 r  = bend release
 /  = slide up/down
<5 = natural harmonic
[5] = artifical harmonic
 ~  = vibrato
 tr = trill


E|---------------------5---------5-----8p5---5------------5------------
B|-8b10--8b10---8b10-----8p5---5---8p5-----5---8p5-----5-(5)-8p5---5---
G|---------------------------7---------------------7/9-----------7---8p
D|---------------------------------------------------------------------
A|---------------------------------------------------------------------
E|---------------------------------------------------------------------


E|---------------------------------------|-10b12--r-----(10)p8-----8---
B|---------------------------------------|---------------------10~---9~
G|-7p5-7-5---5---------------------------|-----------------------------
D|---------7---7-5h7p5---7p5-------------|-----------------------------
A|---------------------7-----7p5\3-------|-----------------------------
E|---------------------------------5b7--r|-----------------------------


E|----------5-------5---------5-------------------------|----------------
B|--------5---5-8p5---5-8p5-5---8p5---5-5h8p5-----------|-17h20p17----17h
G|----/-6---------------------------7---------7-5~-(5)/-|----------20----
D|------------------------------------------------------|----------------
A|------------------------------------------------------|----------------
E|------------------------------------------------------|----------------


E|----------------------------------------------------------|-12--13--15p
B|-20p17----17h20p17----17h20p17----17h20p17-17p16----17----|------------
G|-------20----------20----------20----------------19----17\|------------
D|-------------------------------------------------------17\|------------
A|----------------------------------------------------------|------------
E|----------------------------------------------------------|------------


E|-13p12----12h15p12-13p12----12-12h13p12----12----------|-20b22--r---20p
B|-------15----------------15-------------15----13p12----|---------------
G|----------------------------------------------------14~|---------------
D|-------------------------------------------------------|---------------
A|-------------------------------------------------------|---------------
E|-------------------------------------------------------|---------------


E|-17-20-17-----------------17-------------------------------------17~-\
B|----------20-20b22-----17----20p17----17-20p17----17-20p17----17------
G|-------------------20b-------------19----------19----------19---------
D|----------------------------------------------------------------------
A|----------------------------------------------------------------------
E|----------------------------------------------------------------------
  development and support by
dmitry ivanov