rock
 
|tablatures   |lyrics   |discussion forums   |more tabs @ XGuitar.com

Judas Priest tabs

Grinder bass tab

|<<<<----Judas Priest---->>>> GRINDER <<<<---->>>>|

My bass instructor, Orey (or orie, sp...) from Gotham Guitars, taught me
how to play this song, I couldnt find any tabs online. The song is simple enough,
great song for any beginners out there, and easy to play (well, hopefully, lol)
Anyways, Enjoy the tab... Not like you got much choice so far, I havent seen
any other B.tabs for this song anywhere else, but dont worry, this should be
nearly 99% correct.
Enjoy. --Mitchell Miller


Intro/Verses-Solo
G|--------------------------------------------------------------------|
D|--------------------------------------------------------------------|
A|--------------------------------------------------------------------|
E|-----5-5-5-5-5-5-5-5-5-5-5-5-5-5-5-5...-----3-3-3-3-3-3-3-3-3-3----|
  ^I cant accurately tab how many times you hit 5, just listen and play
   along until you hear the 3s, then play those for a short amount of
   time and go back to the 5s until intro/verse/solo ends.


Chorus
G|-----------------------------------------|
D|*---------------------------------------*|
A|*---------------------------------------*|
E|---0--2---222-222-------02---22222222---|
        ^hold note                  ^hit around 7 or 8 times


Bridge
G|-------------------------------| |-------------------------------|
D|*-----------------------------*| |*-----------------------------*|   2x
A|*-----------------------------*| |*-----------------------------*|
E|----2-222--222--2-0000---------| |---0-000--000--0-2222----------|

Outro (not much of an outro)
G|-------------|
D|-------------|
A|-------------|
E|----0--2-----|
   Gri - nder


<<>>
-Intro
 -Verse
-Chorus
 -Verse
-Chorus
 -Solo
-Bridge
 -Verse
-Chorus
  development and support by
dmitry ivanov