rock
 
|tablatures   |lyrics   |discussion forums   |more tabs @ XGuitar.com

Judas Priest tabs

Evil Fantasies guitar tab

JUDAS PRIEST - Evil Fantasies
Transcribed by Dennis Cromarty
______________________________



  R1
|-----------------------------------------------------------------------|
|-----------------------------------------------------------------------|
|------2-------------2-------2------2------2------------------------2---|
|--------------------2--------------------------------------------------|
|--3h4---0--3-p0--0--0---3h4---0--3----3h4---0--0--3-p0------3-p0-------|
|-------------------------------------------------------3-p0------3-----|

|-----------------------------------------------------------------------|
|-----------------------------------------------------------------------|
|------2-------------2-------2------2------2------------------------2---|
|--------------------2----------------------------------------------2---|
|--3h4---0--3-p0--0--0---3h4---0--3----3h4---0--0--3-p0------3-p0---0---|
|-------------------------------------------------------3-p0------3-----|

   CR1
|----------------------------------------------------------|
|----------------------------------------------------------|
|-----------------------7/9--7----------------7------------|
|-7/9--9\7/9  \--7/9\---7/9--7--7/9-9--9-7-9--7-----7-7-4--|
|-7/9--9\7/9  \--7/9\---5/7--5--7/9-9--9-7-9--5-----7-7-4--|
|-5/7--7\5/7  \--5/7\-----------5/7-7--7-5-7--------5-5-2--|

   CR2
|----------------------------------------------------|
|----------------------------------------------------|
|-----------------------7/9--7-----------------------|
|-7/9--9\7/9  \--7/9\---7/9--7--7-------5-5-5-5-7-7--|
|-7/9--9\7/9  \--7/9\---5/7--5--7-------5-5-5-5-7-7--|
|-5/7--7\5/7  \--5/7\-----------5-------3-3-3-3-5-5--|


  CR3
|----------------------------------------------------|
|----------------------------------------------------|
|-----------------------7/9--7-----------------------|
|-7/9--9\7/9  \--7/9\---7/9--7--7---------5-5-5-5-2--|
|-7/9--9\7/9  \--7/9\---5/7--5--7---------5-5-5-5-2--|
|-5/7--7\5/7  \--5/7\-----------5---------3-3-3-3-0--|


   CR4
|----------------------------------------------------|
|----------------------------------------------------|
|-----------------------7/9--7-----------------------|
|-7/9--9\7/9  \--7/9\---7/9--7--7---------5-5-5-5-7--|
|-7/9--9\7/9  \--7/9\---5/7--5--7---------5-5-5-5-7--|
|-5/7--7\5/7  \--5/7\-----------5---------3-3-3-3-5--|


    BR
 *** 3X  *************
|----------------------|-----------------------|
|----------------------|-----------------------|
|----------------------|-------------------7---|
|--9-9-----9-9---------|--9-9-----9-9------7---|
|--7-7-----7-7---------|--7-7-----7-7------5---|
|--0-0-----0-0---------|--0-0-----0-0----------|


R1 3X
CR1 CR2 CR1 CR3
R1 3X
CR1 CR2 CR1 CR4
BR 2X
CR1 CR2 CR1 CR3
R1 4X



   Breaking the Law
   First Priest song that I learned.  Haven't figured out the squeal before
   the second time the course is done.

  R1
|--------------------------------|-----------------------------|
|--------------------------------|-----------------------------|
|--------------------------------|-----------------------------|
|--------------------------------|-----------------------------|
|--0--2--3---0--2--3---0--2--3---|--------0-------0-----3--2---|
|--------------------------------|--1--3-----1--3----3---------|

  VR1                                     VR2
|------------------------------------| |------------------------------------|
|------------------------------------| |------------------------------------|
|--2--------X--X--5----X--X--------2-| |--2--------X-X--5----X-X--7--X-X-9--|
|--2--------X--X--5----X--X--5--X--2-| |--2--------X-X--5----X-X--7--X-X-9--|
|--0--------X--X--3----X--X--5--X--0-| |--0--------X-X--3----X-X--5--X-X-7--|
|----------------------------3--X----| |------------------------------------|

  PC1                                      PCE1                PCE2
|-------------------------------------| |-----------------| |-----------------|
|-------------------------------------| |-----------------| |-----------------|
|--10---10---\--5----5-----5/10----10-| |--9---9-9-9-9-9--| |--9-----9--------|
|--10---10---\--5----5-----5/10----10-| |--9---9-9-9-9-9--| |--9-----9--------| 
|--7---7-7-7-7-7--|
|--8----8----\--3----3-----3/8-----8--| |--7---7-7-7-7-7--| |--7-----7--------|
|-------------------------------------| |-----------------| |-----------------|
                                                                         
  CR
|----------------------------------------------------------------|
|-------------------------------9--\------------------------9--9-|
|-------------------------------9--\------------------------9--9-|
|-------------------------------7--\------------------------7--7-|
|-0-0-0-0-0-0-0-0-0-0-0-0-0-0-0-------0-0-0-0-0-0-0-0-0-0-0------|
|----------------------------------------------------------------|

|----------------------------------------------------------------|
|-\-----------------------------9--\------------------------9--9-|
|-\-----------------------------9--\------------------------9--9-|
|-\-----------------------------7--\------------------------7--7-|
|-----0-0-0-0-0-0-0-0-0-0-0-0-0-------0-0-0-0-0-0-0-0-0-0-0------|
|----------------------------------------------------------------|

  BR
|-----------------------------------------------------------------------|
|-----------------------------------------------------------------------|
|-4----4---2--2---4---4-4---2--2---4---4-4---2---2---4---4-4---2--2-----|
|-4----4---2--2---4---4-4---2--2---4---4-4---2---2---4---4-4---2--2-----|
|-2----2---0--0---2---2-2---0--0---2---2-2---0---0---2---2-2---0--0-----|
|-----------------------------------------------------------------------|

|-----------------------------------------------------------------------|
|-----------------------------------------------------------------------|
|-7---7/10----5----7---7/10----12-----7---7/10----5----7---7/10----12---|
|-7---7/10----5----7---7/10----12-----7---7/10----5----7---7/10----12---|
|-5---5/8-----3----5---5/8-----10-----5---5/8-----3----5---5/8-----10---|
|-----------------------------------------------------------------------|

 R1 x2
 VR1 x2 (first time, don't do the mute pick before the A5 chord)
 PC1, PCE1, C
 VR1, VR2, PC1, PCE2, C
 BR, R1 repeatedly till end

   end
 |------------------------------|
 |------------------------------|
 |----------------------------2-|
 |----------------------------2-|
 |--------0-------0-----3--2--0-|
 |--1--3-----1--3----3----------|
  development and support by
dmitry ivanov