rock
 
|tablatures   |lyrics   |discussion forums   |more tabs @ XGuitar.com

Judas Priest tabs

Electric Eye bass tab

Judas Priest - Hellion/Electric Eye
Tabbed By: dead kyle
Email: kyle19015@yahoo.com

Tuning: Standard (E A D G)



Hellion

A Guitar Intro

G|------------------|------------------||
D|-------w----------|-------w----------||
A|-------r----------|-------r----------||
E|------------------|------------------||

B

G|------------------|------------------||
D|-------w----------|-------w----------||
A|-------7----------|-------7----------||
E|------------------|------------------||

                                    4x
G|------------------|------------------||
D|--------w---------|---h-----h--------||
A|--------5---------|---3-----5--------||
E|------------------|------------------||

C

G|------------------|------------------||
D|-------w----------|--------w---------||
A|-------7----------|-------(7)--------||
E|------------------|------------------||

Electric Eye

A (Intro)

G|--------------|---------------|------------------||
D|-----q--h-----|-h--q--e-------|-------w----------||
A|--q--r--r-----|-r--r--r--e----|-------r----------||
E|--0-----------|----------5----|------------------||


G|-------------|------------|-----------||
D|--h--e---e-e-|-h--q--e--e-|-h--q--e---||
A|--r--r-e-r-7-|-r--r--r--3-|-r--r--r-e-||
E|-------7-----|------------|---------5-||


G|-------------|-----------||
D|---h--q--e---|-h--q--e---||
A|---r--r--r-e-|-r--r--r-e-||
E|-----------7-|---------0-||

B (Verse)
                   8x
G|-------------------||
D|-------------------||
A|--e--e-e-e-e-e-e-e-||
E|-(0)-0-0-0-0-0-0-0-||

C (Verse)
                   8x
G|-------------------||
D|-e-e-e-e-e-e-e-e-e-||
A|-0-0-0-0-0-0-0-0-0-||
E|-------------------||

Riff B 7x

D (Chorus)

G|-----------------|-------------------|-----------------||
D|---------------e-|--e--e-e-e-e-e-e-e-|-e-e-e-e-e-e-e-e-||
A|-e-e-e-e-e-e-e-3-|-(3)-3-3-3-3-3-3-3-|-3-3-3-3-3-3-3-0-||
E|-0-0-0-0-0-0-0---|-------------------|-----------------||


G|-------------------|-----------------|-------------------||
D|--e--e-e-e-e-e-e-e-|-e-e-e-e-e-e-e-e-|--e--e-e-e-e-e-e-e-||
A|-(0)-0-0-0-0-0-0-0-|-0-0-0-0-0-0-0-5-|-(5)-5-5-5-5-5-5-5-||
E|-------------------|-----------------|-------------------||

                                                          1x
G|-----------------|---------------------|------------------||
D|-e-e-e-e-e-e-e-e-|--e--e-e-e-e-e-e---e-|---w--------------||
A|-5-5-5-5-5-5-5-2-|-(2)-2-2-2-2-2-2\-14-|--14--------------||
E|-----------------|---------------------|------------------||


Riff B 8x
Riff C 8x
Riff D 1x
Riff B 8x

E
                                       1x
G|------------------|--------------------||
D|--w---------------|-q---q----q----e--e-||
A|--2\--------------|-2--(2)--(2)--(2)-7-||
E|------------------|--------------------||

F Guitar Solo

G|------------------|------------------|------------------||
D|--q---e-e-e-e-e-e-|--q---e-e-e-e-e-e-|--q---e-e---------||
A|-(7)--7-7-7-5-r-7-|-(7)--7-7-7-5-r-3-|-(3)--3-3-e-e-e-e-||
E|------------------|------------------|----------3-3-3-0-||

1st ending
G|-----------------||
D|---------------e-||
A|--q--e-e-e-e-e-7-||
E|-(0)-0-0-0-0-0---||

2nd ending

G|------------------||
D|------------------||
A|--q--e-e-e-e-e-e--||
E|-(0)-0-0-0-0-0-7--||

G

G|-------------------|-----------------||
D|-------------e-----|-------------e---||
A|--q--e-e-e-e-r--e--|--q--e-e-e-e-r-e-||
E|-(7)-7-7-7-5----7--|-(7)-7-7-7-5---3-||

                                   2x
G|-----------------|-----------------||
D|-----------------|-----------------||
A|--q--e-e-e-e-e-e-|--q--e-e-e-e-e-e-||
E|-(3)-3-3-5-5-5-7-|-(7)-7-7-7-7-7-7-||

H
                                  2x
G|-----------------|-----------------||
D|-e-e-e-e-e-e-e-e-|-e-e-e-e-e-e-e-e-||
A|-3-3-3-3-3-3-3-3-|-3-3-3-3-3-3-3-0-||
E|-----------------|-----------------||

1st ending

G|-----------------|-----------------||
D|--q--e-e-e-e-e-e-|-e-e-e-e-e-e-e-e-||
A|-(0)-0-0-0-0-0-0-|-0-0-0-0-0-0-0-3-||
E|-----------------|-----------------||

2nd ending

G|-----------------|-----------------||
D|-e-e-e-e-e-e-e-e-|-e-e-e-e-e-e-e-e-||
A|-2-2-2-2-2-2-2-2-|-5-5-5-5-5-5-5-5-||
E|-----------------|-----------------||

Riff A 5x
Riff C 16x

I
                 3x
G|-----------------||
D|-e-e-e-e-e-e-e-e-||
A|-2-2-2-2-2-2-2-2-||
E|-----------------||

J
                 1x
G|-----------------||
D|-----------------||
A|-e-e-e-e-e-e-e-e-||
E|-2-2-2-2-2-2-2-2-||

Riff I 3x

K                   1x
G|--------------------||
D|---------------e--q-||
A|-e-e-e-e-e-e-e-3-(3)||
E|-2-2-2-2-2-2-2------||

Riff D 1x ( Start on the C note )

Riff B 8x

L (Outro)

G|----------------|---------------|-----------------||
D|-q---e--------q-|-------------q-|-----------------||
A|-5--(5)e---q--r-|-q--e--e--q--r-|-q---e--e--q---q-||
E|-------5--(5)---|-3-(3)-0-(0)---|-5--(5)-3-(3)--0-||


G|------------------||
D|------------------||
A|--------w---------||
E|-------(0)--------||
  development and support by
dmitry ivanov