rock
 
|tablatures   |lyrics   |discussion forums   |more tabs @ XGuitar.com

Judas Priest tabs

Eat Me Alive guitar tab

Band:  Judas Priest
Album: Defenders Of The Faith
Song:  Eat Me Alive

Copyright (c)  CBS (1984)
Version 1.0 - (01/02/05)

Transcribed By: Steve
Email:          stephen.elvidge1@ntlworld.com



PM = Palm mute
/ = Slide Up
\ = Slide Down
~~~ = Vibrato

Normal Tuning



Intro

   Guitar 1

E[------------------------------------------------
B[--8-7---(7)---8-7---(7)------------8--7---------
G[--7-7---(7)---7-7---(7)------------7--7--7------
D[--0-0---(0)---0-0---(0)------------0--0--7------
A[-----------------------------------------5------
E[------------------------------------------------
 [
 [ Guitar 2
 [
E[------------------------------------------------
B[--------------------------8--7--3--8--7--3------
G[--------------------------7--7--2--7--7--2------
D[-----------------------------------------0------
A[------------------------------------------------
E[------------------------------------------------



Main riff/verse riff

   [-------PM--------]           [--PM--]          [--PM--]
E------------------------------------------------------------
B------------------------------------------------------------
G----------------------9--7-7/9----------9--7-7/9------------
D----------------------9--7-7/9----------9--7-7/9------------
A----------------------7--5-5/7----------7--5-5/7------------
E--0000000000000000000-----------00000000----------00000000--

Bridge

     [-------PM---------]        [-----PM-----]
E--------------------------------------------------
B--------------------------------------------------
G-----------------------------------------------7--
D--4---------------------------7----------------7--
A--2-2222-2222-2222-2222-2-3-5-5-5555-5555-5555-5--
E--------------------------------------------------

Chorus

     [--PM---]      [---PM--]        [---PM---]
E-----------------------------------------------------------------------
B-----------------------------------------------------------------------
G-----------------------------------------------------------------------
D--9-----------10-9-----------12-10-9-----------10-9-9--9---------------
A--7-----------8--7-----------10-8--7-----------8--7-7--7-/5------------
E----0000-0000------0000-0000---------0000-0000------0--0----7-6-5-3-0--

Riff Before guitar solo

E------------------------
B------------------------
G------9------8--2--(2)--
D------9------9--2--(2)--
A--2---7--2---7--0--(0)--
E--0-0----0-0------------

Backing for Guitar solo

        [----PM------]    [-----PM-----]
E----------------------------------------
B----------------------------------------
G----------------------------------------
D--7--6-4444-4444-4444-7--2222-2222-2222-
A--5--4-2222-2222-2222-5--0000-0000-0000-
E---------------------------------------- RPT 8 X

Outro riff from guitar solo

     [PM]             ~~ ~~ ~~ ~~
E--------------------------------
B--------------------------------
G--------------------------------
D--------------------------------
A--------------------------2--5--
E--2-2222--3-33-2-22-3--5--------

Back to verse and chorus

Crashes

E----------------------------------------------------
B----------------------------------------------------
G--------4-4---5-5---7-7----(7)-------7---------7----
D--9-9---4-4---5-5---7-7----(7)-------7---------7----
A--7-7---2-2---3-3---5-5----(5)-------5---------5----
E--0-0--------------------------------5---------5----

Outro riff


    [--PM---]      [---PM--]        [---PM---]     [---PM--]
E-------------------------------------------------------------------------------
B-------------------------------------------------------------------------------
G-------------------------------------------------------------------------------
D-9-----------10-9-----------12-10-9-----------10-9-----------------------------
A-7-----------8--7-----------10-8--7-----------8--7-----------8-7---8-7---8-7---
E---0000-0000------0000-0000---------0000-0000------0000-0000-6-5-0-6-5-0-6-5-0-
                                                                         RPT 5 X


End with a crash on the E chord.
  development and support by
dmitry ivanov