rock
 
|tablatures   |lyrics   |discussion forums   |more tabs @ XGuitar.com

Judas Priest tabs

Dont Go guitar tab

                                DON'T GO
   From the album Point of entry

Transcribed by Patric Liljestrand


               Intro                 2x       Verse                     
E---|-----||------------|------------||--||------------|----------------
B---|--2--||------------|------------||--||------------|----------------
G---|--2--||*-----------|-----------*||--||*-----------|----------------
D---|--4--||*-----------|-----------*||--||*-----------|----------------
A---|--2--||---2--2--2--|--2--2------||--||---2--2--2--|--2--2----------
E---|-----||---0--0--0--|--0--0--3---||--||---0--0--0--|--0--0--3-------
                                                                        

     4x                                                           2x    
E----||--||---------------|--------------|-----------|------------||----
B----||--||------3--3-----|-----3--3-----|-----------|------------||----
G---*||--||*--2--2--2--2--|--2--2--2--2--|-----------|-----------*||----
D---*||--||*--2--2--2--2--|--2--2--2--2--|-----------|-----------*||----
A----||--||---0--------0--|--0--------0--|--2--2--2--|--2--2------||----
E----||--||---------------|--------------|--0--0--0--|--0--0--3---||----
                                                                        

                                                                        
E---||------------|-----------|-----------|-----------|-----------|-----
B---||------------|-----------|-----------|-----------|-----------|-----
G---||*--5--5--5--|--4--4--4--|-----------|-----------|--5--5--5--|-----
D---||*--5--5--5--|--4--4--4--|-----------|-----------|--5--5--5--|-----
A---||---3--3--3--|--2--2--2--|--2--2--2--|--2--2-----|--3--3--3--|-----
E---||------------|-----------|--0--0--0--|--0--0--3--|-----------|-----
                                                                        

                                         Chorus                         
E------------|-----------|------||--||---3--2--|-----------------|------
B------------|-----------|------||--||---3--3--|-----------------|------
G---4--4--4--|-----------|-----*||--||*--0--2--|--2--2--2-----2--|------
D---4--4--4--|-----------|-----*||--||*--0--0--|--2--2--2-----2--|------
A---2--2--2--|--2--2--2--|--2---||--||---------|--0--0--0--2--0--|------
E------------|--0--0--0--|--0---||--||---3-----|-----------------|------
                                                                        

                      (not last time) 2x       Verse                    
E---3--2--|---------------------------||--||-------------||--||---------
B---3--3--|---------------------------||--||-------------||--||---------
G---0--2--|--2--2-----------2--2-----*||--||*-----------*||--||*--5-----
D---0--0--|--2--2-----------2--2-----*||--||*-----------*||--||*--5-----
A---------|--0--0-----------0--0------||--||-------------||--||---3-----
E---3-----|---------------------------||--||-------------||--||---------
                                                                        

                                                                        
E---------|-----------|-----------|-----------|-----------|--2---||-----
B---------|-----------|-----------|-----------|-----------|--2---||-----
G---5--5--|--4--4--4--|-----------|-----------|--5--5--5--|--2--*||-----
D---5--5--|--4--4--4--|-----------|-----------|--5--5--5--|--4--*||-----
A---3--3--|--2--2--2--|--2--2--2--|--2--2-----|--3--3--3--|--2---||-----
E---------|-----------|--0--0--0--|--0--0--3--|-----------|------||-----
                                                                        

         Chorus             (solo)       4x                    4x       
E---||-------------||--||----------------||--||----------------||-------
B---||-------------||--||----------------||--||----------------||-------
G---||*-----------*||--||*--2--2-----5--*||--||*--------------*||-------
D---||*-----------*||--||*--2--2-----5--*||--||*--4--4--4-----*||-------
A---||-------------||--||---0--0--0--3---||--||---4--4--4--7---||-------
E---||-------------||--||----------------||--||---2--2--2--5---||-------
                                                                        

                      4x                    3x                          
E---||----------------||--||----------------||--||----------------------
B---||----------------||--||----------------||--||----------------------
G---||*--2--2-----5--*||--||*--------------*||--||*---------------------
D---||*--2--2-----5--*||--||*--4--4--4-----*||--||*--4--2-----2--4------
A---||---0--0--0--3---||--||---4--4--4--7---||--||---4--2-----2--4------
E---||----------------||--||---2--2--2--5---||--||---2--0-----0--2------
                                                                        

              Chorus                                                    
E----||--||----------------||-------------------------------------------
B----||--||----------------||-------------------------------------------
G---*||--||*--------------*||-------------------------------------------
D---*||--||*--------------*||-------------------------------------------
A----||--||----------------||-------------------------------------------
E----||--||----------------||-------------------------------------------
  development and support by
dmitry ivanov