rock
 
|tablatures   |lyrics   |discussion forums   |more tabs @ XGuitar.com

Judas Priest tabs

Dont Go bass tab

Song: Don't Go

Intro
|-----------------------------|
|-----------------------------|
|-----------------------------|
|--/66-66-65-55-54-44-43-3235-|


Verse
|-------------------|----|
|-------------------|----|
|-------------------|----|
|-6--6-65-5-54-4-43-|3-5-|

|-------------------|------|
|-------------------|------|
|-------------------|------|
|-6--6-65-5-54-4-43-|3235--|

|----------------------|------|
|----------------------|------|
|----------------------|------|
|-6--6-655-5-544-4-433-|3235--|


|----------------------|
|----------------------|
|----------------------|
|-6--6-655-5-5444444444|


Chorus
                                       1,3.                      2.
|----------------------------||-----------|-----------------------|
|----------------------------||-----------|-3h55555-3h555-3h55555-|
|----------------------------||-----------|-----------------------|
|-3333-555-666666666-8888-aaa||-333333333-|-----------------------|a=10

|-----------------------------|
|-----------------------------|
|-----------------------------|
|-3333-555-66666666-8~-10~-12~|


Verse 2
|---------------------|-----|
|---------------------|-----|
|---------------------|-----|
|-66-6-65-55-54-44-43-|33-5-|


|---------------------|------|
|---------------------|------|
|---------------------|------|
|-66-6-65-55-54-44-43-|3235--|


|--------------------|------|
|--------------------|------|
|--------------------|------|
|-6-6-65-55-54-44-43-|3235--|


|----------------------|
|----------------------|
|----------------------|
|-6--6-655-5-5444444444|



Chorus 2
                                       1,3.                      2.
|----------------------------||-----------|-----------------------|
|----------------------------||-----------|-3h55555-3h555-3h55555-|
|----------------------------||-----------|-----------------------|
|-3333-555-666666666-8888-aaa||-333333333-|-----------------------|a=10

|-----------------------------|--------------|
|-----------------------------|--------------|
|-----------------------------|--------------|
|-3333-555-66666666-8~-10~-12~|-8~--10~--0~~-|


Bridge


|------------------|-------------33-3-------22-2-----0-11-|
|------------------|----------57---------35---------3-----|
|-33r--11r---------|-33r-3-5h7--------3h5--------1h3------|
|----------55r--44r|--------------------------------------|

|-------------33-3-------22-2-----0-11-|
|----------57---------35---------3-----|
|-33r-3-5h7--------3h5--------1h3------|
|--------------------------------------|

|-1--------|---------------------------------|
|-------35-|---------------------------------|
|---3h5----|---------------------------------|
|----------|-33-344-433-344-433-344-433/17~-|

|-----------------------------------|-------------------------|
|-----------------------------------|-------------------------|
|-----------------------------------|-------------------------|
|--66-666-655-555-544-444-432323234-|-66-666-655-55-544-44-3~-|<----Don't waste a minute waiting for me


NO BASS
Don't take love...for granted
We were supposed to be together forever..

Chorus 3
                                          1,3.                                     2.
|-------------------------------||-----------|-10h12121212-10h12121212-10h12121212-|
|-------------------------------||-----------|--------------------------------------|
|-------------------------------||-----------|--------------------------------------|
|17-3333-555-666666666-8888-aaa||-333333333-|--------------------------------------|

|-----------------------------|--------------|
|-----------------------------|--------------|
|-----------------------------|--------------|
|-3333-555-66666666-8~-10~-12~|-8~--10~--0~~-| END

e-mail:iron_maiden_rules666@hotmail.com
  development and support by
dmitry ivanov