rock
 
|tablatures   |lyrics   |discussion forums   |more tabs @ XGuitar.com

Judas Priest tabs

Devils Child guitar tab

JUDAS PRIEST - DEVIL'S CHILD
(Screaming For Vengeance, 1982)

Key
= after note = vibrato
^ after note = heavy vibrato
\ = slide down
/ = slide up
+ = tap
h = hammer
p = pull
n = natural harmonic
s = pinching harmonic (squeal)
* = tremolo pick
t = trill
b = bend
|-3-| = triplet

n number above the tab = play the first part then the first finishing part
			 play the first part a second time and then play the second finishing part
			 etc.

Riff 1

E ----------------------------------------
B ----------------------------------------
G --------5-------7-----------5-----------
D -7------5--5----7----7------5--5--------
A -7------3--5----5----7------3--5--------
E -5---------3---------5---------3--------

Riff 2

E ---------------------------------------------------------------------------------------------------------------------
B ------------------3---2-----------------------------------------------------3---2----------------------3-3-2-0-0-2-2-
G ------0---0-1-----2---2---7-9----0---0-1--------5-5-------------0---0-1-----2---2---7-9----0---0-1-----2-2-2-0-0-2-2-
D -2----0---0-2-----4---2---7-9----0---0-2--------5-5---5-5-------0---0-2-----4---2---7-9----0---0-2-----4-4-2-2-0-2-2-
A -2----0---0-2-------------5-7----0---0-2--------3-3---5-5-------0---0-2-------------5-7----0---0-2-------------------
E -0--0-0-0-0-0-0-0--------------0-0-0-0-0-0-0-0------0-3-3--0--0-0-0-0-0-0-0--------------0-0-0-0-0-0-0---------------

Riff 3

E --------------------------------3-3-2--------
B --------------------------------3-3-3--------
G -2-----------------------2------0-0-2--------
D -2------------4---5--4---2------0-0-0--------
A -0--------4-5---5------5-0------2-2----------
E --------------------------------3-3----------

Riff 3A

E --------------------------------3-3-2----------
B --------------------------------3-3-3----------
G -2-----------------------2------0-0-2------2-2-
D -2------------4---5--4---2------0-0-0------2-2-
A -0--------4-5---5------5-0------2-2--------0-0-
E --------------------------------3-3------------

Riff 4

E -----------------------------------------
B -----------------------------------------
G --------7-------9-----------7-------9----
D -9------7--7----9----9------7--7----9----
A -9------5--7----7----9------5--7----7----
E -7---------5---------7---------5---------

Riff 4A

E ------------------------------------------
B ------------------------------------------
G ----------------4--------------------4----
D -4------7--2----4----4-------7--2----4----
A -4------7--2----2----4-------7--2----2----
E -2------5--0---------2-------5--0---------

Riff 5

E -------------------------------------
B -------------------------------------
G -6--------4--------2--------4--------
D -6--------4--------2--------4--------
A -4--------2--------0--------2--------
E -------------------------------------

Riff 5A

E ---------------------------------------
B ---------------------------------------
G -6--------4--------2--------4------2-2-
D -6--------4--------2--------4------2-2-
A -4--------2--------0--------2------0-0-
E ---------------------------------------

Order

Riff 1 x 6
Riff 2 x 1
Riff 3 x 1
Riff 3A x 1
Riff 1 x 4
Riff 2 x 1
Riff 3 x 2
Solo over Riff 4 x 4
Noise over Riff 4A x 4
Riff 5 x 4
Riff 5A x 1
Riff 1 x 4
Riff 2 x 1
Riff 3 x 6

Tabbed by Radiohater 2002
  development and support by
dmitry ivanov