rock
 
|tablatures   |lyrics   |discussion forums   |more tabs @ XGuitar.com

Judas Priest tabs

Desert Plains guitar tab

JUDAS PRIEST - DESERT PLAINS

Here are the tabs of a very emotionnal song. Use your amp disto which
is certainly good enough  and add a lot of delay  to play it.

Riff intro and rythm:
e-----------------------------------------------------
B-----------------------------------------------------
G-----------------------------------------------------
D-------------5--3-------------------3--8--3----------
A------1--3--3--1--3---------1--3--5--6--1------------
E---3---------------1---|---3------------------|------

Break :
e-----------------------------------------------------
B-----------------------------------------------------
G-----------------------------------------------------
D----------------------8-----------6--3--5------------
A-------1--6--8--10--6--------1--4--1--3--------------
E----3-----4--6---8------|--3-------------------------

Bridge :
e-------------------------------------------------------------------------------------------
B-------------------------------------------------------------------------------------------
G----------7---------7---5--------5-----------------7------7--------7---5------5------------
D----------7------7------5-----5------5-------5----7------7-----7------5----5---------------
A------1--5---5---------3--3---------5----5-------5------5--5---------3--3-------5-5-5------
E---3---------------------------------3--3--------------|----------------------------3-3-3--

Rythm during the solo
e-------------------------------------------------------------------------------------------
B-------------------------------------------------------------------------------------------
G-------------------------------------------------------------------------------------------
D-------------------------------------------------------------------------------------------
A----7---7---7---7---7---7------3---3---7---------------------------------------------------
E----5---5---5---5---5---5---|---1---5---5--------------------------------------------------

Organisation :
Intro & rythm riff :10 time ; Break 1 ;rythm:5 ; Bridge 1 ; Solo rythm 4
; rythm 5 ; Bridge;

Comments and advises or communications are very welcome to :
steeler@ipt.univ-paris8.fr
  development and support by
dmitry ivanov