rock
 
|tablatures   |lyrics   |discussion forums   |more tabs @ XGuitar.com

Judas Priest tabs

Burn In Hell guitar tab

Burn in Hell
                             by Judas Priest

                        From the album Jugulator

The Intro contains these 2 riffs:

This one first:
|------------------------------------------------------------|
|------------------------------------------------------------|
|----------3-2-------2-1-------3-2-------2-1--1--------------|
|-1------1---------1---------1---------1--------4--4-1-------|
|------------------------------------------------------------|
|------------------------------------------------------------|

Then the main riff:
|------------------------------------------------------------|
|------------------------------------------------------------|
|----3--2----1--------3--2----1------------------------------| Keep goin like
|-1--------3---2---1--------3---2----------------------------|    that...
|------------------------------------------------------------|
|------------------------------------------------------------|

Thats it!

As you see that was just the intro,i hope someone else figure out the rest.

And please no hard words on me cos this is my absolute first tab!

Corrections and comments are welcome!

Enjoy the tab,and take care of yourselves!

Thank you!Goodbye!
  development and support by
dmitry ivanov