rock
 
|tablatures   |lyrics   |discussion forums   |more tabs @ XGuitar.com

Judas Priest tabs

Breaking The Law bass tab

Titulo De la Cancion:                Breaking The Law

Artista:                               Judas Priest

Tablatura por:                  Overkil (overkil@hotmail.com)

Tonos: E,A,G,B. (Estandar)

Nota: Esta mi primer tab, digo mi primera por que la saque de oido y ademas
la modifique un poquito para que suene poderosa, tal y como a mi me gusta "Que se escuche
mas el bajo" que es el que le da poder a la Rola.


Entrada

|---------------------------------------------------------------|
|---------------------------------------------------------------|
|---------------------------------------------------------------|
|-5-5-5-5-5-5-5-5-5-5-5-5-5-5-5-1-1-1-1-1-1-1-1-3-3-3-3-3-3-3-3-|

|-----------------------------------------------------------------|
|-----------------------------------------------------------------|
|------------------------------------------------------------3--2-|
|-5-5-5-5-5-5-5-5-5-5-5-5-5-5-5-1-1-1-1-1-1-1-1--3---5---3--------|

1er Verso

|-------------------------------------------------------------|
|-----------------------------------------------------------|
|--------------------------------3-3-3----------------------|
|-5-5-5-5-5-5-5-5-5-5-5-5-5-5-5-5--------3-3-3-3-5-5-5-5-5-5--|

Pre-Coro

|-------------------------------------------------------------------------|P----|
|-------------------------------------------------------------------------|-A---|
|---------------------3-3-3-3-3-3-3-3-3-3---------------------------------|--U--|
|-1-1-1-1-1-1-1-1-1-1---------------------1-1-1-1-1-1-1-1-1-1-0-0-0-0-0-0-|---S-|
									  |----A|
Coro

|----------------------------------------------------------------------------|
|-------------------------------7/-0-------------------------------7-7/-0--|
|-0-0-0-0-0-0-0-0-0-0-0-0-0-0-0------0-0-0-0-0-0-0-0-0-0-0-0-0-0-0---------|
|----------------------------------------------------------------------------|

2nd Verso

|-------------------------------------------------------------|
|-------------------------------------------------------------|
|---------------------------------3-3-3-----------------------|
|-5-5-5-5-5-5-5-5-5-5-5-5-5-5-5-5--------3-3-3-3-5-5-5-5-5-5--|

Pre-Coro

|--------------------------------------------------------------|
|--------------------------------------------------------------|
|---------------------------------3-3-3-3-5-5-5-5-7-7-7-7/0----|
|-5-5-5-5-5-5-5-5-5-5-5-5-5-5-5-5------------------------------|


|-------------------------------------------------------------------------------|
|-------------------------------------------------------------------------------|
|---------------------3-3-3-3-3-3-3-3-3-3---------------------------------------|
|-1-1-1-1-1-1-1-1-1-1---------------------1-1-1-1-1-1-1-1-1-1-0-0-0-0-0-0-/12/0-|
									
Coro

|-------------------------------------------------------------------------|
|-------------------------------7/-0-------------------------------7-7/-0-|
|-0-0-0-0-0-0-0-0-0-0-0-0-0-0-0------0-0-0-0-0-0-0-0-0-0-0-0-0-0-0--------|
|-------------------------------------------------------------------------|


|----------------------------------------------------------------------|
|-------------------------------7/-0-------------------------------7-7-|
|-0-0-0-0-0-0-0-0-0-0-0-0-0-0-0------0-0-0-0-0-0-0-0-0-0-0-0-0-0-0-----|
|----------------------------------------------------------------------|



Parte X (No se como se llama la parte siguiente)

|------------------------------------------------------------------| X4        |---|
|----------------------------------------------------------------|      Fill |---|
|----------------------------------------------------------------|           |---|
|--7-7-7-7-7-7-7-7-7-7-7-7-7-7-7-7-5-5-5-5-5-5-5-5-5-5-5-5-5-5-5-5-|           |-5-|

|-----------------------------------------------------------------------------------|X2
|---------------------------------------------------------------------------------|
|-------------------------8-8-8---------------------------------8-8-8-10-10-10-10-|fill
|--10-10-10-10-10-10-10-10-------8-8-8-8-10-10-10-10-10-10-10-10--------------------|


|-------------------------------------------------------------|
|-------------------------------------------------------------|
|-------------------------------------------------------------|
|--------0--------5--------5--5--5--5--1-1-1-1--3-3-3-3-3-3-3-|

Salida

|---------------------------------------------------------------|  X5
|-------------------------------------------------------------|
|-------------------------------------------------------------|
|-5-5-5-5-5-5-5-5-5-5-5-5-5-5-5-1-1-1-1-1-1-1-1-3-3-3-3-3-3-3-3-|


|-------------------------------------------------------------------|
|-------------------------------------------------------------------|
|------------------------------------------------------------3--2---|
|-5-5-5-5-5-5-5-5-5-5-5-5-5-5-5-1-1-1-1-1-1-1-1--3---5---3--------5-|

Para Que se Escuche Muy chido Deben de Chingarle mas A la bateria por que tiene unos
remates muy chidos y le da mas poder.

                      Gracias Por Escoger Mi Tab.........
                                                                     Overkil@hotmail.com
  development and support by
dmitry ivanov