rock
 
|tablatures   |lyrics   |discussion forums   |more tabs @ XGuitar.com

Judas Priest tabs

Bloodstone guitar tab

Judas Priest - Bloodstone
from "Screaming for Vengeance"
letostak@ix.netcom.com (Judy Letostak)
_____________________________________


Intro
[A]=====================================================
---------------------------------------------------------
--7----------/9------------------------------------------
-----6------------4--------------7--------2--1h2p1-------
---------------------4--------4---------------------2----
---------9--------------2-------------2------------------
--------------------------------------0------------------

---------------------------------------------------------
--7---------/9------------------/7------/9---------------
-----6----------4-----------7-------6--------------------
-------------------4-----4-------------------------------
--------9-------------2----------------------------------
---------------------------------------------------------
Repeat [A]

---------------------------------------------------------
---------------------------------------------------------
--/6--4--2--4--2-----------------------------------------
------------------4--2-----------------------------------
---------------------------------------------------------
---------------------------------------------------------

3x==========================
---------------------------------------------------------
--5--4--2-----------2--2---------------------------------
--4--4--2-----------2--2---------------------------------
-----------4~-------------4~-----------------------------
---------------2h4---------------------------------------
---------------------------------------------------------

End
---------------------------------------------------------
--5--4---------------------------------------------------
--4--4--2------------------------------------------------
-----------4--2--2---------------------------------------
-----------------2---------------------------------------
-----------------0---------------------------------------

Verse

---------------------------------------------------------
----------2------5----4----------------------------------
----------2------4----4------2---------------------------
---4--------------------4-------4--2---------------------
---4--------------------4-------------4--0---------------
---2--------------------2--------------------------------

Bridge

---------------------------------------------------------
--------------2-----------4------------------------------
--------------2-----------4-----------6------------------
--2------4-----------4----------2-----6------------------
--2------4-----------4----------2-----4--4-2-0-2-0-------
--0------2-----------2----------0------------------2-0---

Chorus

Lead
2x==============
        1/4
---------------------------------------------------------
---------------------------------------------------------
---------------------------------------------------------
--4--7--4b---rb4------5--0--2--5--5--4b(5)-rb4--2--------
----------------------------2--5-------------------------
---------------------------------------------------------

---------------------------------------------------------
--12b(13)-rb12--10---------------------------------------
---------------------------------------------------------
---------------------------------------------------------
----------------------2b(3)-rb2--0-----------------------
---------------------------------------------------------
The rest of the lead just make up yourself.  Use B pentatonic
scales, it's mostly pentatonics in the lead...Have fun with it!

After Lead
2x=======================  2x=========================
--------------------------|------------------------------
--------------------------|------------------------------
--------------------------|------------------------------
--4-----2--2---4----------|--6---4-4--6--4---------------
--2-----0--0---2--2--4--4-|--4---2-2--4--2--6--6---------
------------------0--2--2-|-----------------4--4---------

End 2nd time

---------------------------------------------------------
---------------------------------------------------------
---------------------------------------------------------
---------------------------------------------------------
--4--2--0--2--0------------------------------------------
-----------------2--0------------------------------------

Chorus Out

End
---------------------------------------------------------
---------------------------------------------------------
---------------------------------------------------------
---------------------------------------------------------
---4--2--0--2--0---------4-------------------------------
------------------2--0---2-------------------------------


=======================================================================
h = hammeron                                       ps = pick scrape
p = pulloff                                        % = repeat phrase
~ = vibrato
letostak@ix.netcom.com
b = bend
/\ = Slide
* = Artificial Harmonic
x = ghost note
tr = trill
  development and support by
dmitry ivanov