rock
 
|tablatures   |lyrics   |discussion forums   |more tabs @ XGuitar.com

Judas Priest tabs

Beyond The Realms Of Death guitar tab

JUDAS PRIEST "Beyond The Realms Of Death"
Tabbed by Rokas Velyvis (serva@fermentas.lt)
___________________________________________


Verse riff
|---1---1----------|---1---1---------|---1---1----------|-----------------------------|
|---------4-2------|---------4-2-----|---------4-2------|-----------------------------|
|-----3-------3----|-----3-------3---|-----3-------3----|-----------------------------|
|---------------3--|---------------3-|---------------3--|-3----3-3--3-----------------|
|-1----------------|-1---------------|-1----------------|-1----1-1--3-----------------|
|------------------|-----------------|------------------|-----------------------------|


Intro solo over verse riff:
|---------------------------|--------------------------------|
|--18---(4 bars)------------|--------------------------------|
|---------------------------|--------------------------------|
|---------------------------|--------------------------------|
|---------------------------|-13----15----16-----------------|
|---------------------------|--------------------------------|


|---------------------------|--------------------------------|
|---------------------------|--------------------------------|
|---------------------------|--------------------------------|
|---------------------------|--------------------------------|
|-13----15---16-------------|-13-----------------------13/---|
|---------------------------|--------------------------------|


|---------------------------|
|---------------------------|
|---------------------------|
|---------------------------|
|-20---(2 bars)-------------|
|---------------------------|


1st verse (verse riff 3 times)



Riff 1                                                       (w/dist)
|---1---1----------|---1---1-------------|---1---1----------|---------------------|
|---------4-2------|---------4-2---------|---------4-2------|---------------------|
|-----3-------3----|-----3-------3-------|-----3-------3----|---------------------|
|---------------3--|---------------3-----|---------------3--|---------------------|
|-1----------------|-1-------------------|-1----------------|-3-------------------|
|------------------|---------------------|------------------|-1-------------------|



Chorus                                   (play 4 times)
|---------------------|------------------------|
|---------------------|------------------------|
|---------------------|------------------------|
|---------------------|------------------------|
|-6-8---8---6-8---8---|-6-8---8--6-8-10-11-10--|
|-4-6---6---4-6---6---|-4-6---6--4-6-8--9--8---|



Riff 2
|-----------------------|
|-----------------------|
|-----------------------|
|-----------------------|
|-3---------------------|
|-1---------------------|



2nd verse (verse riff 3 times)+(Riff 1)



Guitar solo in 2nd verse:
|-------------<5--(trem bar dive)-----|-----------<7--(trem bardive)--------|
|---------<5-----------|--------------|-----------------------|--------------|
|-----------------------|--------------|-----------------------|--------------|
|-----------------------|--------------|-----------------------|--------------|
|-----------------------|--------------|-----------------------|--------------|
|-----------------------|--------------|-----------------------|--------------|


|---------------<7---(trem bar dive)--|
|-----------<7---------|--------------|
|-------<5-------------|--------------|
|-----------------------|--------------|
|-----------------------|--------------|
|-----------------------|--------------|



Chorus (chorus riff 4 times)



Riff 3                     (4 times)
|---------------------------------|
|---------------------------------|
|---------------------------------|
|---------------------------------|
|-2-3-3-3-3-3-3-3-2-3-3-3-3-3-3-3-|
|-0-1-1-1-1-1-1-1-0-1-1-1-1-1-1-1-|
   h  P.M  h  P.M


Riff 3A
|---------------------------------|--------------------------|
|---------------------------------|--------------------------|
|---------------------------------|--------------------------|
|---------------------------------|--------------------------|
|-3-2-2-2-2-2-2-2-3-2-2-2-2-2-2-2-|-3-2-2-2-2-2-2-2--2-------|
|-1-0-0-0-0-0-0-0-1-0-0-0-0-0-0-0-|-1-0-0-0-0-0-0-0--0-------|
   p  P.M  p  P.M    p  P.M



chorus riff 2 times



Riff 4
|-----------------------|--------------------------|
|-----------------------|--------------------------|
|-----------------------|--------------------------|
|-----------------------|--------------------------|
|-8---8-----------------|-6---6--------------------|
|-6---6-----------------|-4---4--------------------|



|-----------------------|--------------------------|
|-----------------------|--------------------------|
|-----------------------|--------------------------|
|-----------------------|--------------------------|
|-4---4-----------------|-3---3--3-----------------|
|-2---2-----------------|-1---1--1-----------------|



Solo over riff 4:
|------------------------------------------|
|----11\9--------------------------------9-|
|---------10-8--------------8----8----10---|
|--------------11------8-11---11---11------|
|-----------------8h11---------------------|
|------------------------------------------|
|------------------------------------------|


               /\/\/\/\/                           /\/
|------------------------15---------|----------------------------|
|-15b(17)----(17)-----------15b(17)-|r(15)--14-16------14b(16)---|
|-----------------------------------|-------------15-------------|
|-----------------------------------|----------------------------|
|-----------------------------------|----------------------------|
|-----------------------------------|----------------------------|


|---13-11---------16--------------------------|
|-----------13-14----13h14--------------------|
|--------------------------15-13h15-13-15-13--|
|---------------------------------------------|
|---------------------------------------------|
|---------------------------------------------|


|--------------------------------|--------------------------|
|------9-------------------------|--------------------------|
|-8-10---10-8h10h11-8-10-6-8-5-6-|--------------------------|
|--------------------------------|-8-----8-10-11------------|
|--------------------------------|--------------------8-9---|
|--------------------------------|--------------------------|


|---------------------------------9-|-------9------13----13----------|
|----------------------------9-11---|-11------11------11----11-12-14-|
|------8-11-10----------8-10--------|--------------------------------|
|---------------8-10-11-------------|--------------------------------|
|-11--------------------------------|--------------------------------|
|-----------------------------------|--------------------------------|


|---------------------------------------------|
|-11-12-14p12-11-12-14-12-------11------------|
|-------------------------13-11----11-13b(15)-|
|---------------------------------------------|
|---------------------------------------------|
|---------------------------------------------|


|----------------------------------|--------------------------------------|
|-11------9------------------------|------------9h11p9--------------------|
|-----------10-9-------------------|-8---6-------------8----8b(10)r(8)----|
|----------------11-10b(11)r(10)-8-|---------------------11------------11-|
|----------------------------------|--------------------------------------|
|----------------------------------|--------------------------------------|


|---------------------------|-------------------------------------|
|---------------------------|-------------------------------------|
|-8b(10)----8h9-8p6-8-6---6-|-8/10-10-10-10\8-8-8-8\6-6-6-6\5-5/6-|
|-----------------------8---|-------------------------------------|
|---------------------------|-------------------------------------|
|---------------------------|-------------------------------------|


|------------------|------------------|-------------------------|
|------------------|------------------|-------------------------|
|------------------|------------------|-------------------------|
|-8--------8-10-11-|-8-------13-11-10-|-8----11--8---10p8-10-11-|
|------------------|------------------|-------------------------|
|------------------|------------------|-------------------------|


                                                           /\/\/\
|----------------------------------------------|-------------------------------|
|------------------------------9---------------|-9b(11)-(11)-----11-9-------9b-|
|--5h6h8-6-8b(10)-(10)r(8)-6-5---8-6-----------|----------------------11-10----|
|------------------------------------10--------|-------------------------------|
|----------------------------------------------|-------------------------------|
|----------------------------------------------|-------------------------------|


|-------------------------------------------------|
|-(10)--9---------6-9p6---6-----------------------|
|---------11-10-8-------8---8-6-8-6-5-6-----5-----|
|---------------------------------------8-6---6-4-|
|-------------------------------------------------|
|-------------------------------------------------|


|---------------------------------------|
|---------------------------------------|
|-----------------------------------3h5-|
|-3-------------------------1h3-4h6-----|
|---6-4-3h4p3-1h3p1h3p1-3h4-------------|
|---------------------------------------|


                                                               /\/\/\/
|------------------------------------|------------------------11-------|
|-2---2h4-4h6-6-6-6/9-9-9-9/11-11/13-|-11----14-11---11-13-14----------|
|---3--------------------------------|---------------------------------|
|------------------------------------|---------------------------------|
|------------------------------------|---------------------------------|
|------------------------------------|---------------------------------|


 /\/
|---------11-13-9-11-13-11-13-14-11-13-14-13-14-16-|
|---13-14------------------------------------------|
|--------------------------------------------------|
|--------------------------------------------------|
|--------------------------------------------------|
|--------------------------------------------------|


            /\/\
|-16b(18)-(18)---16-14-13----16p14-------|
|-------------------------16-------18p16-|
|----------------------------------------|
|----------------------------------------|
|----------------------------------------|
|----------------------------------------|


|------------------------------------------------------|
|-18h19p18-21p19p18-18h19p18-18b(20)-----(20)r18b20r18-|
|------------------------------------------------------|
|------------------------------------------------------|
|------------------------------------------------------|
|------------------------------------------------------|


|----------21----------21-----------------------------|
|-21b(23)-----21b(23)-----21b(23)---18-21-18-16h18p16-|
|-----------------------------------------------------|
|-----------------------------------------------------|
|-----------------------------------------------------|
|-----------------------------------------------------|


|---------13h16---------13-16p13---------13-16p13-17p13-16p13-17p13-16p13-17p13--|
|-16b(18)-------16b(18)----------16b(18)-----------------------------------------|
|--------------------------------------------------------------------------------|
|--------------------------------------------------------------------------------|
|--------------------------------------------------------------------------------|
|--------------------------------------------------------------------------------|


|-16b(18)------18-20-21-21b(23)-21-20-18-------|------------------------------|
|----------------------------------------19----|------------------------------|
|-------------------------------------------18-|-17---------------------------|
|----------------------------------------------|------------------------------|
|----------------------------------------------|------------------------------|
|----------------------------------------------|------------------------------|



over verse riff

   /\/\/\/\/\/\/\/\/\
|--------------------|---------------|
|--------------------|---------------|
|-18-(4 bars)--------|-18\-----------|
|--------------------|---------------|
|--------------------|---------------|
|--------------------|---------------|


2nd verse (verse riff 3 times)+(Riff 1)


Chorus (chorus riff 4 times)


Riff 3 (4 times)+ Riff 3A


Riff 5
|-----------------------------------------|-----------------------------------|
|-----------------------------------------|-----------------------------------|
|-----------------------------------------|-----------------------------------|
|-----------------------------------------|-----------------------------------|
|-6-8-8-8---8---8-8---6-8-8-8---8---8-8---|-6-8-8-8---8---8-8---6-8-10-11-10-|
|-4-6-6-6---6---6-6---4-6-6-6---6---6-6---|-4-6-6-6---6---6-6---4-6-8--9--8--|
      P.M..     P.M..     P.M..     P.M..       P.M..     P.M..



2nd solo over Riff 5 (6 times):
|------------------------------|-----------------------------------|
|-9b(11)-----------------------|-----------------------------------|
|----------8-6-5-------8--6----|-8-6-8-6--8-8b(10)-(10)--8-6---8---|
|------------------6-8---------|-----------------------------------|
|------------------------------|-----------------------------------|
|------------------------------|-----------------------------------|


|----------------------------------------------|
|------9p7------9p7------9p7------11b(13)------|
|-8-10-----10-8-----10-8-----10-8--------------|
|----------------------------------------------|
|----------------------------------------------|
|----------------------------------------------|


|-9-----------------------------------------------|
|---11-9-11-9----9-------------9------------------|
|-------------10---10-8-10-8-6---10-8-10-8-6------|
|--------------------------------------------8----|
|-------------------------------------------------|
|-------------------------------------------------|


|--------------------------------------------------------------------------------------|
|-11h14p13p11-16p14p11-14p13p11-16p14p11-14p13p11-16p14p11-14-14b(15)b(16)r(15)b(16)---|
|--------------------------------------------------------------------------------------|
|--------------------------------------------------------------------------------------|
|--------------------------------------------------------------------------------------|
|--------------------------------------------------------------------------------------|


|-11-------------------------------------------|
|----14p13-14-13-11----------------------------|
|-------------------13-12-10-------------------|
|----------------------------10h11-10----------|
|-------------------------------------11-/13\--|
|----------------------------------------------|


  trill      trill      trill      trill
|-6-(9)--6---6-(9)--6---6-(9)--6---6-(9)--6-|-11b(13)r(11)----11b(13)r(11)---11b(13)r(11)----|
|-------------------------------------------|---------------------------------------------11-|
|-------------------------------------------|------------------------------------------------|
|-------------------------------------------|------------------------------------------------|
|-------------------------------------------|------------------------------------------------|
|-------------------------------------------|------------------------------------------------|


              /\/\/\/\
|-11b(13)---11b(13)---11b(13)---11p9------|-11b(13)---11b(13)---11b(15)---11b(13)----|
|------------------------------------11---|------------------------------------------|
|-----------------------------------------|------------------------------------------|
|-----------------------------------------|------------------------------------------|
|-----------------------------------------|------------------------------------------|
|-----------------------------------------|------------------------------------------|


  tremolo tremolo tremolo tremolo
|--------------------------------|
|--------------------------------|
|-/15-----/15-----/15-----/15----|
|--------------------------------|
|--------------------------------|
|--------------------------------|


|-21-20-18-18-21-20-18-18-21-20-18-18-21-20-18-18-21b(23)---21b(24)-|
|-------------------------------------------------------------------|
|-------------------------------------------------------------------|
|-------------------------------------------------------------------|
|-------------------------------------------------------------------|
|-------------------------------------------------------------------|


end of song:
gtr.1
|-21\------------------------------------|
|----------------------------------------|
|----------------------------------------|
|----------------------------------------|
|----------------------------------------|
|----------------------------------------|
gtr.2
|---------------------|------------------------|
|---------------------|------------------------|
|---------------------|------------------------|
|---------------------|------------------------|
|-6-8---8---6-8---8---|-6-8---8--6-8-10-11-10--|
|-4-6---6---4-6---6---|-4-6---6--4-6-8--9--8---|



                      rit.
|---------------------|---------------------|------------|
|---------------------|---------------------|------------|
|---------------------|---------------------|------------|
|---------------------|---------------------|------------|
|-6-8---8---6-8---8---|-6-8---8--6-8-10-11--|-10--3------|
|-4-6---6---4-6---6---|-4-6---6--4-6-8--9---|-8---1------|


Any suggestions and comments are welcome.
Enjoy!

Rokas (serva@fermentas.lt)
Rokas Velyvis
  development and support by
dmitry ivanov