rock
 
|tablatures   |lyrics   |discussion forums   |more tabs @ XGuitar.com

Judas Priest tabs

Better By You, Better Than Me guitar tab

From: srobb@cs.strath.ac.uk (DREAMER DECEIVER)
Subject: Judas Priest: Better By You, Better Than Me


        This time your getting the chorus as well, so be grateful !!


   INTRO & VERSE : repeat several times                                              
e|---------------------------------|--------------------------------------|
B|---------------------------------|--------------------------------------|
G|--7/(9)--9-9--9--9--9--9-(/)-12--|--7/(9)--9-9--9--9--------------------|
D|--5/(7)--7-7--7--7--7--9-(/)-10--|--5/(7)--7-7--7--7--7\(5)-------------|
A|---------------------------------|--------------------------7--7p(5)----|
E|---------------------------------|-----------------------------------8--|

   END OF VERSE : PRE CHORUS (once only per verse)
e|---------------------------------|------------------------------------|
B|---------------------------------|------------------------------------|
G|--7/(9)--9-9--9--9--9--9-(/)-12--|--5/(7)--7-7--7--7--7--7-(/)-10--7--|
D|--5/(7)--7-7--7--7--7--9-(/)-10--|--3/(5)--5-5--5--5--5--5-(/)--8--5--|
A|---------------------------------|------------------------------------|
E|---------------------------------|------------------------------------|

   CHORUS :
e|------------------------------------------------------|
B|------------------------------------------------------|
G|-----------7--------10--------9--------9--------------|
D|--7--------7--------10--------9--------9--------------|
A|--7--------5---------8--------7--------7--------------|
E|--5---------------------------0--------0--------------|
    HOLD the first 4 chords but just sound the
         last one for one note
  development and support by
dmitry ivanov