rock
 
|tablatures   |lyrics   |discussion forums   |more tabs @ XGuitar.com

Jimi Hendrix tabs

Wait Till Tomorrow bass tab

Wait Until Tomorrow - Jimi Hendrix

  verse riff (x4)
G|----------------|
D|----------------|
A|----3-4-6--/6-4-|
E|4-4-------------|

  chorus riff
G|--------------------|
D|---------4----------|
A|--6-46664-------4---|
E|0------------4h6-240|

tabbed by Achilles (blue_sincere@hotmail.com)
  development and support by
dmitry ivanov