rock
 
|tablatures   |lyrics   |discussion forums   |more tabs @ XGuitar.com

Jimi Hendrix tabs

Voodoo Child bass tab

Artist:  Jimi Hendrix
Song:    Voodoo Child
tabbed by:  amanda marshall (amanda_marsha40@hotmail.com)


A intro
|-----|-----|-----|-----|
|-----|-----|-----|-----|
|-----|-----|-----|-----|
|-----|-----|-----|-----|

B
|---------------------------------------|-----------------------------------------|
|---------------------------------------|-----------------------------------------|
|--7---7--7--7---7--7--7--7--7---7---7--|--5--6--7--7--7---7---7--7--7--7--7---7--|
|---------------------------------------|-----------------------------------------|

|-------------------------------------|-----------------------------------------|
|-------------------------------------|-----------------------------------------|
|--5--6--7--7--7---7---7--7--7--7--7--|--5--6--7--7--7---7---7--7--7--7--5---6--|
|-------------------------------------|-----------------------------------------|

|----------------------------------------|---------------------------------------|
|----------------------------------------|---------------------------------------|
|--6/7--7--7--7---7---7--7--7-----5---6--|--7---7--7------7---7--7------5--7--5--|
|------------------------------7---------|------------O-------------7------------|

|-----------------------------------------|----------------------------------------|
|-----------------------------------------|----------------------------------------|
|--6--7--7--7--7---7---7--7--7---5-----5--|--5--6--7-----7---7-----7--7--7--5------|
|-----------------------------------7-----|-----------7-------------------------7--|

|-----------------------------------|---------------------------------------|
|-----------------------------------|---------------------------------------|
|--7---7--7---7-----7--7--7---5-----|--7---7--7--7---7---7--7--7--7--5------|
|--------------------------------7--|------------------------------------7--|

                                                                              well I
|-----------------------------------------|-----------------------------------------|
|-----------------------------------------|-----------------------------------------|
|--7---7--7--7---7---7--7--5--5--------5--|--7---7--7--7---7---7--7--7--7--5-----5--|
|--------------------------------7--7-----|-----------------------------------7-----|

C 1st verse
   stand up...
|----------------------------------------|-----------------------------------------|
|----------------------------------------|-----------------------------------------|
|--5---7---7---7--7--7---5---------5--6--|--7---7--7--------7--7---5--------5---6--|
|----------------------------7--7--------|------------O--O------------7--7---------|

|-------------------------------------------|---------------------------------------|
|-------------------------------------------|---------------------------------------|
|--7---7--7--5-----5--6--7--7--5-----5---6--|--7---7-----5-----7---7--7--7---5------|
|---------------7-----------------7---------|---------7-----7--------------------7--|

|----------------------------------------------------|---------------------------------|
|----------------------------------------------------|---------------------------------|
|--5--6--7--7--7-----5--6--7--(O)--7--7--5-----5--6--|--7---7--7--7---7---7--7--7---5--|
|-----------------7-------------------------7--------|---------------------------------|

|---------------------------------------------------|----------------------------------------|
|---------------------------------------------------|----------------------------------------|
|--5--6--7--(O)--7---7--7--7--(O)--7---5------5--6--|--7---7--7--7--7--7-----7--7-----5---6--|
|------------------------------------------7--------|------------------------------7---------|

|------------------------------------------|------------------------------------------|
|------------------------------------------|------------------------------------------|
|--6/7--7--7--5--6--6--6--7----------5--5--|--6/7--7--7--7--7--7---7--7--7---5-----5--|
|-----------------------------O---7--------|------------------------------------7-----|

|-----------------------------------------------|
|-----------------------------------------------|
|--6/7--7--7--5---5--5--5-----5--5-----5--6--7--|
|--------------------------7--------7-----------|

|------------------------------------------------|----------------------------------------|
|------------------------------------------------|---------------5------------------------|
|--5---5--5--5--5--6--7-----7--5--5--5-----5--6--|-----5--5--7---------7--7------5--6--7--|
|---------------------------------------7--------|--O-------------------------7-----------|

                               cause I'm  a
|--------------------------------------------|
|--------------------------------------------|
|--7---7--7--7---7---7--7--7--7-----------5--|
|--------------------------------7--7--7-----|

D 1st chorus
   voodoo child...
|----------------------------------------3--5--|--------------7-----------------------------|
|------------------------2--4---4--4--5--------|-----4--5--7------7--7--------4---3---------|
|--3--5--5--O--5---3--3------------------------|--5---------------------5--5----------5--6--|
|----------------------------------------------|--------------------------------------------|

|------------------7--9--7--9--9--9--------|--9--9--9-----7--9--7------------/9------------|
|-----------/9-----------------------7--9--|-----------------------9---7--5-------7--8--9--|
|--7-----7---------------------------------|-----------------------------------------------|
|------------------------------------------|-----------------------------------------------|

E guitar solo

|-------------------------------------------|---------------------------------------|
|-------------------------------------------|---------------------------------------|
|--6/7--7---7---7--7---7--7--7--5-----5--5--|--6--7--5--6--7---7--7-----5-----5--6--|
|----------------------------------7--------|------------------------------7--------|

|----------------------------------------|----------------------------------------|
|----------------------------------------|----------------------------------------|
|--5--6--7---5--5--6--7-----7---5-----5--|--5--6--7--5--7---7-----7--5-----5---6--|
|----------------------------------7-----|------------------------------7---------|

|------------------------------------------|----------------------------------------|
|------------------------------------------|----------------------------------------|
|--6--7--7--5-----5--6--7--7--7---5--------|--5--6--7--7--7--5--6-----7--7---5------|
|--------------7---------------------7--7--|-------------------------------------7--|

|--------------------------------------------|---------------------------------------|
|--------------------------------------------|---------------------------------------|
|--5--6--7--7-----5--6---7---7---5--7--------|--O--5--6---7---7---7--7--7------5--5--|
|--------------------------------------7--7--|------------------------------7--------|

|---------------------------------------------|-----------------------------------------------|
|---------------------------------------------|-----------------------------------------------|
|--5--7--7--7--5--5--6--6--7--7--7-----5---O--|--5--6--7--7--------7--7--7--5--7--5--------5--|
|-----------------------------------7---------|-----------------7-----------------------7-----|

|------------------------------------------|-------------------------------------------|
|------------------------------------------|-------------------------------------------|
|--5--6--7---7------5--6--6--7--7---7---7--|--5--7--7---7--7--7--7--5--6--7---5-----5--|
|----------------7-------------------------|-------------------------------------7-----|

|----------------------------------------------|------------------------------------------|
|----------------------------------------------|------------------------------------------|
|--5--7--7-----5---5--6--7---7--7--5-----5--6--|--6/7--7--7--7---5--6--7--5--------5---6--|
|-----------5-------------------------7--------|-----------------------------7--7---------|

|-------------------------------------|--------------------------------------|
|-------------------------------------|--------------------------------------|
|--7---7--7--7---7---7--7--7-------5--|--6/7--7--7--7---7-----7--7-----7--7--|
|------------------------------7------|--------------------------------------|

|--------------------------------------------|----------------------------------------------|
|--------------------------------------------|----------------------------------------------|
|--5--6--7--7--5---7---7--7--7--7--5---5--5--|--5--6--7--5--5---7---7--7--7--7--5--5--5--5--|
|--------------------------------------------|----------------------------------------------|

                                                                 I  didn't mean
|-----------------------------------------|----------------------------------------|
|-----------------------------------------|----------------------------------------|
|--5--7--7--5--5---7---7--7--7-----7---7--|--7---7--7--7---7-----7--7-----7--7--7--|
|-----------------------------------------|----------------------------------------|

F 2nd verse
   to take...
|------------------------------------------|------------------------------------------|
|------------------------------------------|------------------------------------------|
|--5--6--7--7--7---7---5--6--7---7---5--6--|--7---7--7--7--7--7--------7-----7--7--7--|
|------------------------------------------|------------------------7-----------------|

|---------------------------------------------|----------------------------------------------|
|---------------------------------------------|----------------------------------------------|
|--5--6--7--5--7---7--7-----7--7-----5--5--6--|--7---7--7--7---7--7--5--6--7--7--5-----5--6--|
|---------------------------------------------|-------------------------------------7--------|

|-----------------------------------------|-------------------------------------------|
|-----------------------------------------|-------------------------------------------|
|--6--7--7-----5-----7---7--7--7---5------|--7---7--7--7-----7---7---7--7--5----------|
|-----------7-----7--------------------7--|---------------7-------------------7--(6)--|

|---------------------------------|--------------------------------------------|
|---------------------------------|--------------------------------------------|
|--6/7--7--7--7---7-----7--5------|--5/7---7--7--7---7---7-----7--7--5---------|
|------------------------------7--|--------------------------------------7--7--|

|-------------------------------------------|--------------------------------------|
|-------------------------------------------|--------------------------------------|
|--5--6--7--7--7---7--7-----5--5------5--7--|--6--7--7--7--7---7-----7--5----------|
|----------------------------------7--------|-------------------------------7---3--|

|-------------------------------------------|------------------------------------------|
|-------------------------------------------|------------------------------------------|
|--7---7---7---7--7--5--5--7--5------5---6--|--7---7---7-----7---7--5------5--5--6--6--|
|--------------------------------7----------|--------------------------7---------------|

|-------------------------------------------|
|-------------------------------------------|
|--6--7--7--7--7---7--7--7--7--5------5--6--|
|----------------------------------7--------|

                                    cause I'm  a
|--------------------------------------------------|
|--------------------------------------------------|
|--6--7--7--7--5--6--7--7--5--6--7--5--5--6--7--5--|
|--------------------------------------------------|

G chorus
   voodoo child...
|--------------------------------------3--5--|-----7----------------------------------------|
|------------------------2---3---4--5--------|-----------7--8--7--5--5--3--3----------------|
|--O--3--3--O--3---3--3----------------------|--5-----------------------------6---5---5--5--|
|--------------------------------------------|----------------------------------------------|

|-------------------------7--7--8--9---9--|--9---9---------------------7--8--9---9-----|
|------------6--7--8---9------------------|----------6--7--7--7--8--9---------------7--|
|--7---7--7-------------------------------|--------------------------------------------|
|-----------------------------------------|--------------------------------------------|

H 2nd guitar solo
|----------------------------------------------|----------------------------------------------|
|----------------------------------------------|----------------------------------------------|
|--5--6--7--7--7--7--7---------7---5-----5--6--|--6--7--7--7--7--7--7---7--5------5--5--6--6--|
|------------------------5--7---------7--------|-------------------------------7--------------|

|--------------------------------------------|------------------------------------------|
|-------------5------------------------------|------------------------------------------|
|--6/7-----5-----5--6--7---5-----5-----5--6--|--7--7--5--5--6--7--5--7---7--7--5-----6--|
|-------5---------------------7-----7--------|------------------------------------7-----|

|------------------------------------------------|---------------------------------------------|
|------------------------------------------------|---------------------------------------------|
|--5--6--7--(O)--7--7--7---7--5------5--6--5--5--|--7--5-----5--------5--6--7---7--7--7---5--6-|
|---------------------------------7--------------|--------7-----7--7---------------------------|

|-----------------------------------------|-------------------------------------------|
|-----------------------------------------|-------------------------------------------|
|--7---5--6--7---7---7--7--5--O--5--6--7--|--5--6--7--O--5--6--7-----7---O--7---O--5--|
|-----------------------------------------|-------------------------------------------|

|--------------------------------------------|---------------------------------------------|
|--------------------------------------------|---------------------------------------------|
|--7--O--7--7--7---7---O--5--6--7--7---O--7--|--7--O--7--7--O--7--7--O--7---O--7--7--O--7--|
|--------------------------------------------|---------------------------------------------|

|---------------------------------------------|---------------------------------------------|
|---------------------------------------------|---------------------------------------------|
|--O--7--7--O--7--7--O--7-----O--7---O--7--7--|--5--7--7--O--7--7--5--7-----O--7---7--5--5--|
|---------------------------------------------|---------------------------------------------|

|--------------------------------------|------------------------------------------------|
|--------------------------------------|------------------------------------------------|
|--7--7---7--7---7--7---7--7--5--5-----|--5--7--7--O--7-----7---7--7--7--7--O--5--5--6--|
|-----------------------------------7--|------------------------------------------------|

|----------------------------------------------|--------------------------------------------|
|----------------------------------------------|--------------------------------------------|
|--7--7--7-----7---7---7--5--5-----5-----5--5--|--6--7--7--5-----5--7---7---7---5-----5--6--|
|-------------------------------7-----7--------|--------------7--------------------7--------|

|------------------------------------------|-------------------------------------------|
|------------------------------------------|-------------------------------------------|
|--7--7--7-----7-----7--------7------5--6--|--6--7---7--7--7--7--7-----5--5-----5---6--|
|-----------7-----7--------7------7--------|---------------------------------7---------|

|-------------------------------------------|---------------------------------------------|
|---------------------------------5---------|------------------------------5---5--5--7/9--|
|--7---------7--7-----7--7--5--5------5--5--|--5--7------7--7--5-----7--7-----------------|
|-----7---7--------7------------------------|---------7-----------7-----------------------|

|-------------------------------------------|-----------------------------------------------|
|--9----------------------------------------|-----------------------------------------------|
|------7--7--5---7--5--5--------------------|--5--6--7--7--7-----7--7-----7--------5--7-----|
|-------------------------7--3-----5--6--7--|-----------------------------------7--------5--|

|--9--7---------------------------------------|--9--7---------------------------------------|
|--------9--7--5------------------------------|--------9--7--6------------------------------|
|--------------------7--7-----5--7---5--6--7--|--------------------7--7---5--7--5--5--5--6--|
|---------------------------------------------|---------------------------------------------|

|--9--7-------------------------9--9---------|--9----------------------------------------|
|--------9--7--6----------5--9---------8--9--|-----9--7--5-------------------8--9--8--9--|
|------------------7--7----------------------|--------------7---7---7--7--5--------------|
|--------------------------------------------|-------------------------------------------|

|--9--7---------------9--------------------|--9--7--4-------------------------------------|
|--------9--7--6---------8--9--8--9--8--9--|-----------7--5--4---------7--9---7--9--7--9--|
|-----------------7------------------------|--------------------7---7---------------------|
|------------------------------------------|----------------------------------------------|

|--9--7---------------------------------------|------------------------------------------------|
|--------9--7--6------------------------------|------------------------------------------------|
|-----------------5--7---7--5--7--7--5-----5--|--7-----7--7--7--7-----7--7---7--7--7--5--5--5--|
|---------------------------------------7-----|--------------------7---------------------------|

|----------------------------------------------|---------------------------------------------|
|----------------------------------------------|--------------5--5---------------------------|
|--7---7--7--5--5--7---7-----7--7-----5--6--7--|--4--5--7--7--------7---7--5--7-----5--5-----|
|-------------------------5--------7-----------|---------------------------------5--------7--|

|---------------------------------------------|------------------------------------------|
|---------------------------------------------|------------------------------------------|
|-----7--7--O--5--5--6--7-----6--7--7--7---7--|--5--O--7--7--------------7-----7---O--7--|
|--6------------------------------------------|--------------7--6--5--6------5-----------|

|---------------|
|---------------|
|--O--7---O--7--|
|---------------|Artist:  Jimi Hendrix
Song:    Voodoo Child
tabbed by:  amanda marshall (amanda_marsha40@hotmail.com)


A intro
|-----|-----|-----|-----|
|-----|-----|-----|-----|
|-----|-----|-----|-----|
|-----|-----|-----|-----|

B
|---------------------------------------|-----------------------------------------|
|---------------------------------------|-----------------------------------------|
|--7---7--7--7---7--7--7--7--7---7---7--|--5--6--7--7--7---7---7--7--7--7--7---7--|
|---------------------------------------|-----------------------------------------|

|-------------------------------------|-----------------------------------------|
|-------------------------------------|-----------------------------------------|
|--5--6--7--7--7---7---7--7--7--7--7--|--5--6--7--7--7---7---7--7--7--7--5---6--|
|-------------------------------------|-----------------------------------------|

|----------------------------------------|---------------------------------------|
|----------------------------------------|---------------------------------------|
|--6/7--7--7--7---7---7--7--7-----5---6--|--7---7--7------7---7--7------5--7--5--|
|------------------------------7---------|------------O-------------7------------|

|-----------------------------------------|----------------------------------------|
|-----------------------------------------|----------------------------------------|
|--6--7--7--7--7---7---7--7--7---5-----5--|--5--6--7-----7---7-----7--7--7--5------|
|-----------------------------------7-----|-----------7-------------------------7--|

|-----------------------------------|---------------------------------------|
|-----------------------------------|---------------------------------------|
|--7---7--7---7-----7--7--7---5-----|--7---7--7--7---7---7--7--7--7--5------|
|--------------------------------7--|------------------------------------7--|

                                                                              well I
|-----------------------------------------|-----------------------------------------|
|-----------------------------------------|-----------------------------------------|
|--7---7--7--7---7---7--7--5--5--------5--|--7---7--7--7---7---7--7--7--7--5-----5--|
|--------------------------------7--7-----|-----------------------------------7-----|

C 1st verse
   stand up...
|----------------------------------------|-----------------------------------------|
|----------------------------------------|-----------------------------------------|
|--5---7---7---7--7--7---5---------5--6--|--7---7--7--------7--7---5--------5---6--|
|----------------------------7--7--------|------------O--O------------7--7---------|

|-------------------------------------------|---------------------------------------|
|-------------------------------------------|---------------------------------------|
|--7---7--7--5-----5--6--7--7--5-----5---6--|--7---7-----5-----7---7--7--7---5------|
|---------------7-----------------7---------|---------7-----7--------------------7--|

|----------------------------------------------------|---------------------------------|
|----------------------------------------------------|---------------------------------|
|--5--6--7--7--7-----5--6--7--(O)--7--7--5-----5--6--|--7---7--7--7---7---7--7--7---5--|
|-----------------7-------------------------7--------|---------------------------------|

|---------------------------------------------------|----------------------------------------|
|---------------------------------------------------|----------------------------------------|
|--5--6--7--(O)--7---7--7--7--(O)--7---5------5--6--|--7---7--7--7--7--7-----7--7-----5---6--|
|------------------------------------------7--------|------------------------------7---------|

|------------------------------------------|------------------------------------------|
|------------------------------------------|------------------------------------------|
|--6/7--7--7--5--6--6--6--7----------5--5--|--6/7--7--7--7--7--7---7--7--7---5-----5--|
|-----------------------------O---7--------|------------------------------------7-----|

|-----------------------------------------------|
|-----------------------------------------------|
|--6/7--7--7--5---5--5--5-----5--5-----5--6--7--|
|--------------------------7--------7-----------|

|------------------------------------------------|----------------------------------------|
|------------------------------------------------|---------------5------------------------|
|--5---5--5--5--5--6--7-----7--5--5--5-----5--6--|-----5--5--7---------7--7------5--6--7--|
|---------------------------------------7--------|--O-------------------------7-----------|

                               cause I'm  a
|--------------------------------------------|
|--------------------------------------------|
|--7---7--7--7---7---7--7--7--7-----------5--|
|--------------------------------7--7--7-----|

D 1st chorus
   voodoo child...
|----------------------------------------3--5--|--------------7-----------------------------|
|------------------------2--4---4--4--5--------|-----4--5--7------7--7--------4---3---------|
|--3--5--5--O--5---3--3------------------------|--5---------------------5--5----------5--6--|
|----------------------------------------------|--------------------------------------------|

|------------------7--9--7--9--9--9--------|--9--9--9-----7--9--7------------/9------------|
|-----------/9-----------------------7--9--|-----------------------9---7--5-------7--8--9--|
|--7-----7---------------------------------|-----------------------------------------------|
|------------------------------------------|-----------------------------------------------|

E guitar solo

|-------------------------------------------|---------------------------------------|
|-------------------------------------------|---------------------------------------|
|--6/7--7---7---7--7---7--7--7--5-----5--5--|--6--7--5--6--7---7--7-----5-----5--6--|
|----------------------------------7--------|------------------------------7--------|

|----------------------------------------|----------------------------------------|
|----------------------------------------|----------------------------------------|
|--5--6--7---5--5--6--7-----7---5-----5--|--5--6--7--5--7---7-----7--5-----5---6--|
|----------------------------------7-----|------------------------------7---------|

|------------------------------------------|----------------------------------------|
|------------------------------------------|----------------------------------------|
|--6--7--7--5-----5--6--7--7--7---5--------|--5--6--7--7--7--5--6-----7--7---5------|
|--------------7---------------------7--7--|-------------------------------------7--|

|--------------------------------------------|---------------------------------------|
|--------------------------------------------|---------------------------------------|
|--5--6--7--7-----5--6---7---7---5--7--------|--O--5--6---7---7---7--7--7------5--5--|
|--------------------------------------7--7--|------------------------------7--------|

|---------------------------------------------|-----------------------------------------------|
|---------------------------------------------|-----------------------------------------------|
|--5--7--7--7--5--5--6--6--7--7--7-----5---O--|--5--6--7--7--------7--7--7--5--7--5--------5--|
|-----------------------------------7---------|-----------------7-----------------------7-----|

|------------------------------------------|-------------------------------------------|
|------------------------------------------|-------------------------------------------|
|--5--6--7---7------5--6--6--7--7---7---7--|--5--7--7---7--7--7--7--5--6--7---5-----5--|
|----------------7-------------------------|-------------------------------------7-----|

|----------------------------------------------|------------------------------------------|
|----------------------------------------------|------------------------------------------|
|--5--7--7-----5---5--6--7---7--7--5-----5--6--|--6/7--7--7--7---5--6--7--5--------5---6--|
|-----------5-------------------------7--------|-----------------------------7--7---------|

|-------------------------------------|--------------------------------------|
|-------------------------------------|--------------------------------------|
|--7---7--7--7---7---7--7--7-------5--|--6/7--7--7--7---7-----7--7-----7--7--|
|------------------------------7------|--------------------------------------|

|--------------------------------------------|----------------------------------------------|
|--------------------------------------------|----------------------------------------------|
|--5--6--7--7--5---7---7--7--7--7--5---5--5--|--5--6--7--5--5---7---7--7--7--7--5--5--5--5--|
|--------------------------------------------|----------------------------------------------|

                                                                 I  didn't mean
|-----------------------------------------|----------------------------------------|
|-----------------------------------------|----------------------------------------|
|--5--7--7--5--5---7---7--7--7-----7---7--|--7---7--7--7---7-----7--7-----7--7--7--|
|-----------------------------------------|----------------------------------------|

F 2nd verse
   to take...
|------------------------------------------|------------------------------------------|
|------------------------------------------|------------------------------------------|
|--5--6--7--7--7---7---5--6--7---7---5--6--|--7---7--7--7--7--7--------7-----7--7--7--|
|------------------------------------------|------------------------7-----------------|

|---------------------------------------------|----------------------------------------------|
|---------------------------------------------|----------------------------------------------|
|--5--6--7--5--7---7--7-----7--7-----5--5--6--|--7---7--7--7---7--7--5--6--7--7--5-----5--6--|
|---------------------------------------------|-------------------------------------7--------|

|-----------------------------------------|-------------------------------------------|
|-----------------------------------------|-------------------------------------------|
|--6--7--7-----5-----7---7--7--7---5------|--7---7--7--7-----7---7---7--7--5----------|
|-----------7-----7--------------------7--|---------------7-------------------7--(6)--|

|---------------------------------|--------------------------------------------|
|---------------------------------|--------------------------------------------|
|--6/7--7--7--7---7-----7--5------|--5/7---7--7--7---7---7-----7--7--5---------|
|------------------------------7--|--------------------------------------7--7--|

|-------------------------------------------|--------------------------------------|
|-------------------------------------------|--------------------------------------|
|--5--6--7--7--7---7--7-----5--5------5--7--|--6--7--7--7--7---7-----7--5----------|
|----------------------------------7--------|-------------------------------7---3--|

|-------------------------------------------|------------------------------------------|
|-------------------------------------------|------------------------------------------|
|--7---7---7---7--7--5--5--7--5------5---6--|--7---7---7-----7---7--5------5--5--6--6--|
|--------------------------------7----------|--------------------------7---------------|

|-------------------------------------------|
|-------------------------------------------|
|--6--7--7--7--7---7--7--7--7--5------5--6--|
|----------------------------------7--------|

                                    cause I'm  a
|--------------------------------------------------|
|--------------------------------------------------|
|--6--7--7--7--5--6--7--7--5--6--7--5--5--6--7--5--|
|--------------------------------------------------|

G chorus
   voodoo child...
|--------------------------------------3--5--|-----7----------------------------------------|
|------------------------2---3---4--5--------|-----------7--8--7--5--5--3--3----------------|
|--O--3--3--O--3---3--3----------------------|--5-----------------------------6---5---5--5--|
|--------------------------------------------|----------------------------------------------|

|-------------------------7--7--8--9---9--|--9---9---------------------7--8--9---9-----|
|------------6--7--8---9------------------|----------6--7--7--7--8--9---------------7--|
|--7---7--7-------------------------------|--------------------------------------------|
|-----------------------------------------|--------------------------------------------|

H 2nd guitar solo
|----------------------------------------------|----------------------------------------------|
|----------------------------------------------|----------------------------------------------|
|--5--6--7--7--7--7--7---------7---5-----5--6--|--6--7--7--7--7--7--7---7--5------5--5--6--6--|
|------------------------5--7---------7--------|-------------------------------7--------------|

|--------------------------------------------|------------------------------------------|
|-------------5------------------------------|------------------------------------------|
|--6/7-----5-----5--6--7---5-----5-----5--6--|--7--7--5--5--6--7--5--7---7--7--5-----6--|
|-------5---------------------7-----7--------|------------------------------------7-----|

|------------------------------------------------|---------------------------------------------|
|------------------------------------------------|---------------------------------------------|
|--5--6--7--(O)--7--7--7---7--5------5--6--5--5--|--7--5-----5--------5--6--7---7--7--7---5--6-|
|---------------------------------7--------------|--------7-----7--7---------------------------|

|-----------------------------------------|-------------------------------------------|
|-----------------------------------------|-------------------------------------------|
|--7---5--6--7---7---7--7--5--O--5--6--7--|--5--6--7--O--5--6--7-----7---O--7---O--5--|
|-----------------------------------------|-------------------------------------------|

|--------------------------------------------|---------------------------------------------|
|--------------------------------------------|---------------------------------------------|
|--7--O--7--7--7---7---O--5--6--7--7---O--7--|--7--O--7--7--O--7--7--O--7---O--7--7--O--7--|
|--------------------------------------------|---------------------------------------------|

|---------------------------------------------|---------------------------------------------|
|---------------------------------------------|---------------------------------------------|
|--O--7--7--O--7--7--O--7-----O--7---O--7--7--|--5--7--7--O--7--7--5--7-----O--7---7--5--5--|
|---------------------------------------------|---------------------------------------------|

|--------------------------------------|------------------------------------------------|
|--------------------------------------|------------------------------------------------|
|--7--7---7--7---7--7---7--7--5--5-----|--5--7--7--O--7-----7---7--7--7--7--O--5--5--6--|
|-----------------------------------7--|------------------------------------------------|

|----------------------------------------------|--------------------------------------------|
|----------------------------------------------|--------------------------------------------|
|--7--7--7-----7---7---7--5--5-----5-----5--5--|--6--7--7--5-----5--7---7---7---5-----5--6--|
|-------------------------------7-----7--------|--------------7--------------------7--------|

|------------------------------------------|-------------------------------------------|
|------------------------------------------|-------------------------------------------|
|--7--7--7-----7-----7--------7------5--6--|--6--7---7--7--7--7--7-----5--5-----5---6--|
|-----------7-----7--------7------7--------|---------------------------------7---------|

|-------------------------------------------|---------------------------------------------|
|---------------------------------5---------|------------------------------5---5--5--7/9--|
|--7---------7--7-----7--7--5--5------5--5--|--5--7------7--7--5-----7--7-----------------|
|-----7---7--------7------------------------|---------7-----------7-----------------------|

|-------------------------------------------|-----------------------------------------------|
|--9----------------------------------------|-----------------------------------------------|
|------7--7--5---7--5--5--------------------|--5--6--7--7--7-----7--7-----7--------5--7-----|
|-------------------------7--3-----5--6--7--|-----------------------------------7--------5--|

|--9--7---------------------------------------|--9--7---------------------------------------|
|--------9--7--5------------------------------|--------9--7--6------------------------------|
|--------------------7--7-----5--7---5--6--7--|--------------------7--7---5--7--5--5--5--6--|
|---------------------------------------------|---------------------------------------------|

|--9--7-------------------------9--9---------|--9----------------------------------------|
|--------9--7--6----------5--9---------8--9--|-----9--7--5-------------------8--9--8--9--|
|------------------7--7----------------------|--------------7---7---7--7--5--------------|
|--------------------------------------------|-------------------------------------------|

|--9--7---------------9--------------------|--9--7--4-------------------------------------|
|--------9--7--6---------8--9--8--9--8--9--|-----------7--5--4---------7--9---7--9--7--9--|
|-----------------7------------------------|--------------------7---7---------------------|
|------------------------------------------|----------------------------------------------|

|--9--7---------------------------------------|------------------------------------------------|
|--------9--7--6------------------------------|------------------------------------------------|
|-----------------5--7---7--5--7--7--5-----5--|--7-----7--7--7--7-----7--7---7--7--7--5--5--5--|
|---------------------------------------7-----|--------------------7---------------------------|

|----------------------------------------------|---------------------------------------------|
|----------------------------------------------|--------------5--5---------------------------|
|--7---7--7--5--5--7---7-----7--7-----5--6--7--|--4--5--7--7--------7---7--5--7-----5--5-----|
|-------------------------5--------7-----------|---------------------------------5--------7--|

|---------------------------------------------|------------------------------------------|
|---------------------------------------------|------------------------------------------|
|-----7--7--O--5--5--6--7-----6--7--7--7---7--|--5--O--7--7--------------7-----7---O--7--|
|--6------------------------------------------|--------------7--6--5--6------5-----------|

|---------------|
|---------------|
|--O--7---O--7--|
|---------------|
  development and support by
dmitry ivanov