rock
 
|tablatures   |lyrics   |discussion forums   |more tabs @ XGuitar.com

Jimi Hendrix tabs

The Wind Cries Mary bass tab

The Wind Cries Mary - Jimi Hendrix

   intro
       (x2)                verse
G|------10/11(12)/1314--|--------------------------------------------------30-23------30-23-----
D|1/23------------------|--------23--033-3--------23--033-3--------23--033-------1/23------1/23-
A|----------------------|3-321-05---------3-321-05---------3-321-05-----------------------------
E|----------------------|-----------------------------------------------------------------------


10/11(12)/1314--|
----------------|
----------------|
----------------|

   outro
G|------10/11(12)/1314--------10/11(12)/1314--------10/11(12)1314---3-45--|
D|1/23--------------------23------------------1/23-------------------3----|
A|----------------------53------------------------------------------------|
E|------------------------------------------------------------------------|


Sorry I don't have the guitar solo here, but I always just improv.  If you must have it though,
just E-mail me.    


  development and support by
dmitry ivanov