rock
 
|tablatures   |lyrics   |discussion forums   |more tabs @ XGuitar.com

Jimi Hendrix tabs

The Star Spangled Banner guitar tab

THE STAR SPANGLED BANNER
As recorded by Jimi Hendrix
(From the 1998 Album LIVE AT WOODSTOCK)

Gtr I (Eb Ab Db Gb Bb Eb) - 'Jimi Hendrix'

fluctuates (very freely) Q=65
 3/4
  Gtr I
  e e   Q  Q  E. S   +H.        +H     a E E   Q  Q  Q
|-----|----------0-|-(0)------|-(0)----2s4-2-|-0---------|
|-0---|-------0----|----------|--------------|-----------|
|---1-|----1-------|----------|--------------|----1s=3s==|
|-----|-2----------|----------|--------------|-----------|
|-----|------------|----------|--------------|-----------|
|-----|------------|----------|--------------|-----------|


                                                     ~
  H.        +H      E E   a    +Q   +E  a E E T S.   H     E E   Q  Q  Q
|---------|-------------|--------------------------|-----------|-0--0------|
|---------|-------------|-7b9==(9)--(9)-9r7-5h7p5--|-4----\2-4-|-------0---|
|-4-------|-(4)----/4-4-|--------------------------|-----------|-----------|
|---------|-------------|--------------------------|-----------|-----------|
|---------|-------------|--------------------------|-----------|-----------|
|---------|-------------|--------------------------|-----------|-----------|


  a Q  Q  E E   Q  Q  Q    H.        +H     a E S S   H       Q
|-------------|----------|-0-------|-(0)----2S4-4h5-|-4tr5----2tr4---|
|---------0---|-------0--|---------|----------------|----------------|
|-0h1-------1-|----1-----|---------|----------------|----------------|
|------2------|-2--------|---------|----------------|----------------|
|-------------|----------|---------|----------------|----------------|
|-------------|----------|---------|----------------|----------------|

                                           with feedback
                        ~~~~                ~~~~~~~
        |-3-|
  Q  Q  E E E   Q  E E +Q     S S S S E S S Q    +H     E E   a    +H.
|-0-----------|-------------|------------------|------------|--------------|
|-------------|-------------|------------------|------------|-7b9==(9)r====|
|----1s=3s1s3s|=4s=6s8-(8)s=|=6h8p6h8p6s4h6-4--|-(4)----4-4-|--------------|
|-------------|-------------|------------------|------------|--------------|
|-------------|-------------|------------------|------------|--------------|
|-------------|-------------|------------------|------------|--------------|


                                         ~
                                   |-3-|
  +Q   +Q   E a E   +E.    +S  +E  S S S Q
|-----------------|-------------------------|
|-(9)r=(7)--5-5h7-|-(7)b9==(9)r(7)-5h7p5-4--|
|-----------------|-------------------------|
|-----------------|-------------------------|
|-----------------|-------------------------|
|-----------------|-------------------------|


  +H      E E   Q  Q  Q    Q  Q   E. S
|-------------|-0--0-----|-------/4--4--|
|-(4)----\2-4-|-------0--|--------------|
|-------------|----------|-1------------|
|-------------|----------|----2---------|
|-------------|----------|--------------|
|-------------|----------|--------------|


            feedback                           ~~wild whammy abuse
  Q  Q  Q    H.          a      +H      +Q     H.
|-4--5--7--|-7-------|-----------------------|---------|
|----------|---------|-/17b19==(19)r===(17)--|---------|
|----------|---------|-----------------------|---------|
|----------|---------|-----------------------|-0-------|
|----------|---------|-----------------------|-0-------|
|----------|---------|-----------------------|-0-------|
                                               H.


           |----6----|        |----6----|
   H       S S S S S S    Q   S S S S S S Q
|----------x-x-x-x-x-x-|------x-x-x-x-x-x-----|
|----------x-x-x-x-x-x-|------x-x-x-x-x-x-----|
|----------x-x-x-x-x-x-|------x-x-x-x-x-x-----|
|-(0)------------------|-(0)------------------|
|-(0)------------------|-(0)------------------|
|-(0)------------------|-(0)------------------|
  +H.                    +H.


   |----6-----| |----6----|
   S  S S S S S S S S S S S  Q     H      E   E
|--x--x-x-x-x-x------------------|---------------|
|--x--x-x-x-x-x-x-x-x-x-x-x------|---------------|
|--x--x-x-x-x-x-x-x-x-x-x-x------|---------------|
|-(0)-----------x-x-x-x-x-x------|-------h4/-h4/-|
|-(0)----------------------------|---------------|
|-(0)-----------------------15\--|-0\------------|
  +H.


   a      +Q    +E.  +S   a      +E.  +S    E  S  S  Q   E  E
|-----------------------------------------|-------------------|
|-----------------------------------------|-------------------|
|-15b17==(17)--(17)r(15)-15b17==(17)r(15)-|-----------------x-|
|-----------------------------------------|-------------------|
|-----------------------------------------|-------------------|
|-----------------------------------------|-x\-x\-x\-x\--x\---|


                                                       ~~~~wild whammy abuse
   a      +Q    +E   +E  E. S    a      +Q    +E   +E  Q
|-----------------------------|---------------------------|
|-17b19==(19)--(19)r(17)------|-17b20==(20)--(20)r(17)----|
|---------------------------0-|---------------------------|
|------------------------0----|------------------------0--|
|-----------------------------|------------------------0--|
|-----------------------------|------------------------0--|


 ~~~~~
                                  |----6----|
  +Q   E S S S S S S   S S S S Q  S S S S S S
|--------------------|------------------------|
|--------------------|------------------------|
|--------------------|------------------------|
|-(0)----x-x-x-x-x-x-|-x-x-x-x----x-x-x-x-x-x-|
|-(0)----x-x-x-x-x-x-|-x-x-x-x----x-x-x-x-x-x-|
|-(0)--x-x-x-x-x-x-x-|-x-x-x-x----x-x-x-x-x-x-|


                \trem dive
  ~                                ~
  H      Q     +H      E E   Q  Q  Q    Q    E  E  E  E    E. S S S E S E.
|-----------|---------/5-4-|-2--4--5--|-5/--------------|-------------------|
|-----------|--------------|----------|-----------------|-------------------|
|-0---------|--------------|----------|-----h8----h8----|-h8--0h8p0h8p0h8---|
|-----------|--------------|----------|-----h8----h8----|-h8--0h8p0h8p0h8---|
|-----------|--------------|----------|--------h7----h7-|-------------------|
|------/17--|-(17)---------|----------|-----------------|-------------------|


  \4/  \4/  \4/  \4/  \4/  \4/    \4/  \4/  \4/  \4/
                                                     |-3--|
  E   +E   +E   +E   +E   +E     +E   +E   +E   +E   E E  E
|------------------------------|----------------------------|
|------------------------------|----------------------------|
|------------------------------|-------------------------13-|
|-0---(0)--(0)--(0)--(0)--(0)--|-(0)--(0)--(0)--(0)--5-0----|
|-0---(0)--(0)--(0)--(0)--(0)--|-(0)--(0)--(0)--(0)---------|
|------------------------------|----------------------------|

        drop trem
        \2____\2____\3___\3_______
    E   E     E     E    E     E
|--------------------------------|
|-----h13---------h11--------h10-|
|-h12-------h10---------h9-------|
|--------------------------------|
|--------------------------------|
|--------------------------------|


  wide with bar~~~~~~~~~~~~~~~~~~~~
  S  E.  +E  E  T T  T T  T T  T T
|----------------------------------|
|----------------------------------|
|-0h13--(13)p0h13p0h13p0h13p0h13p0h|
|----------------------------------|
|----------------------------------|
|----------------------------------|


 ~~~~~~~~~~~~~~~~~~~~~~~~~~~~~~~~~~~~~~~~~~~~~~~~~~~~~~~~~~~~~~~
     T T  T T  T T  T T  T T  T T  T T  T T  T T  T T  T T  T T
||----------------------------------------------------------------||
||o--------------------------------------------------------------o||
||--13p0h13p0h13p0h13p0h13p0h13p0h13p0h13p0h13p0h13p0h13p0h13p0---||
||----------------------------------------------------------------||
||o--------------------------------------------------------------o||
||----------------------------------------------------------------||


  \dive bar          \dive bar
            ~~                  ~~
  H.        H.        H.        H.
|---------|---------|---------|---------|
|---------|---------|-0-------|---------|
|-0-------|---------|-0-------|---------|
|---------|-0-------|---------|-0-------|
|---------|-0-------|---------|-0-------|
|---------|-0-------|---------|-0-------|


  \dive bar return\dive bar
                           ~~~~~~~~~~~~~~~~~
                                |----6----|
  H      +Q     +H.        H    S S S S S S
|-0------(0)--|-(0)------|-0----0-0-0-0-0-0--|
|-0------(0)--|-(0)------|-0----0-0-0-0-0-0--|
|-------------|----------|-0----0-0-0-0-0-0--|
|-------------|----------|-0-----------------|
|-------------|----------|-0-----------------|
|-------------|----------|-------------------|


  ~~~~~~~~~~~~~~~~~~~~~~~~~~~
     |----6----| |----6----|
  Q  S S S S S S S S S S S S
|-0--0-0-0-0-0-0-0-0-0-0-0-0-|
|-0--0-0-0-0-0-0-0-0-0-0-0-0-|
|-0--0-0-0-0-0-0-0-0-0-0-0-0-|
|-0--------------------------|
|----------------------------|
|----------------------------|


                                          scoop and dive bar
                                ~~
  E.  S      +Q    +E.   S      H    Q     Q     +H
|----18b20==(18)--(18)-(19)r-|-16----0--|-17b19r(17)----|
|-0--------------------------|-------0--|-15b17r(15)----|
|-0--------------------------|-------0--|---------------|
|-0--------------------------|----------|---------------|
|----------------------------|----------|---------------|
|----------------------------|----------|---------------|


                                  \dive   \dive
                                                      ~
                                                             |-3-|
  E  a      +E   +Q    Q     +Q   H       H      Q    Q  +E  S S S Q
|-------------------------|-------------|-------/5--|-4--(4)p2h4p2p0--|
|---15b20==(20)-(20)b(21)-|-(21)--------|-0---------|-----------------|
|-0-----------------------|-------------|-0---------|-----------------|
|-------------------------|-------0-----|-0---------|-----------------|
|-------------------------|-------0-----|-----------|-----------------|
|-------------------------|-------0-----|-----------|-----------------|


                           ~~
  H    E E   Q   Q  Q    a H.        +H       E  E    H     E  E
|----------|-----------|-----------|---------------|-12-------12--|
|-4----2-4-|-5\--------|-----------|--------/12-12-|-------12-----|
|----------|-----1s=3--|-3s4-------|-(4)-----------|--------------|
|----------|-----------|-----------|---------------|--------------|
|----------|-----------|-----------|---------------|--------------|
|----------|-----------|-----------|---------------|--------------|


                                       ~~
   H     E  E    Q   E  E  Q     E  E  H
|-16-------12-|-16-----12-16--|----12-16----||
|-------12----|-----12--------|-12----------||
|-------------|---------------|-------------||
|-------------|---------------|-------------||
|-------------|---------------|-------------||
|-------------|---------------|-------------||


 4/4
  E E Q  Q  E E   Q  Q  E E E E   E E E E E T S. Q
|---0-0--0--0---|-----------0-2-|-4-5-5-4-2-4p2--0----|
|-0-----------4-|-2--2--2-4-----|---------------------|
|---------------|---------------|---------------------|
|---------------|---------------|---------------------|
|---------------|---------------|---------------------|
|---------------|---------------|---------------------|


        ~~~~~~~~~~~~~~~~~~~~~~~~~~~~~~
  a    +H     H      +W           +W
|------------------|------------|------------|
|-4b5==(4)----4----|-(4)--------|-(4)--------|
|------------------|------------|------------|
|------------------|------------|------------|
|------------------|------------|------------|
|------------------|------------|------------|


                                     \dive   \dive
                            ~~~~~~
  +H     Q  e e   Q  E  E E E +Q     H.      Q
|---------------|-0--2-/4-5-7-(7)--|-7-------------|
|-(4)-------0-0-|------------------|---------------|
|---------------|------------------|---------------|
|---------------|------------------|---------0-----|
|---------------|------------------|---------0-----|
|---------------|------------------|---------0-----|


                             ~~~~~~
                   |-3-|
  E E Q  E a S S E S S S   E E +H.
|-0-2-4s=5p4h5p4s2h4p2h4p|=2p0-(0)------|
|------------------------|--------------|
|------------------------|--------------|
|------------------------|--------------|
|------------------------|--------------|
|------------------------|--------------|


  H    Q   Q    +H      H       H    H      +W
|-0-----------|--------------|-------0----|-(0)----*|
|----------5--|-(5)-----8----|-10----0----|-(0)----*|
|------2/--6--|-(6)-----9----|-11----1----|-(1)----*|
|------3/--7--|-(7)----10----|-12----2----|-(2)----*|
|----------7--|-(7)----10----|-12----2----|-(2)----*|
|----------5--|-(5)-----8----|-10----0----|-(0)----*|

  development and support by
dmitry ivanov