rock
 
|tablatures   |lyrics   |discussion forums   |more tabs @ XGuitar.com

Jimi Hendrix tabs

The Star Spangled Banner bass tab

Jimi Hendrix
Star Spangled Banner
Just play it sounds good. Some parts are missing.
*= BEND /=SLIDE

G---------------------*9*------11/13--11--9--------------------
D--9--------------9------------------------------------*9*-----
A-----11------11------------------------------11--13-----------
E---------12---------------------------------------------------

------11/13--11-9--*8*------6--8--9-9-------------|
9--9-----------------------------------9--6------*|
---------------------------------------------7---*|
--------------------------------------------------|

G--13--13--13--14--16--*16*------14--13------13------13--14=97-*14*
D----------------------------------------16------------------------
A------------------------------------------------------------------
E------------------------------------------------------------------

---------14--13----------------------------------------------------
-----------------16--14--*3*------11=9713--14----------------------
---------------------------------------------11--13=97-*14*--------
-------------------------------------------------------------------

G---------------------------------11--13--14--13--11--------------------
D------14--14=97-14\\13--11--11--11----------------------14=9713/14--*13*
A--14-------------------------------------------------------------------
E-----------------------------------------------------------------------

------------9--11--13--14=9714/*16*------9--11--13--14--11--*9*--
------9--9-------------------------------------------------------
-----------------------------------------------------------------
-----------------------------------------------------------------
  development and support by
dmitry ivanov