rock
 
|tablatures   |lyrics   |discussion forums   |more tabs @ XGuitar.com

Jimi Hendrix tabs

Spanish Castle Magic bass tab

Spanish Castle Magic - Jimi Hendrix

  intro riff     verse riff
G|---5--55-5-5-|--------------------------|
D|-------------|--------------------------|
A|-23--3----3--|3333-----------------3333-|
E|0------------|------6666-5555-3333------|

  chorus
G|5-5--------------------------------------------------------------------------------5--55-5-5-
D|---3--33-3-3----3--33-----------------------------------------------------8------------------
A|-3---------------------3636-3--33--3636-3--33--363/10101010101010101098766-66789--3--3----3--
E|-----4----4--444--4---5----0--3---5----0--3---5---------------------------------02-----------

  ---5--55-5-5-|
  -------------|
  -23--3----3--|
  0------------|

  solo riff
G|---5--55---3-|
D|---------35--|
A|-23--3-------|
E|0------------|

  development and support by
dmitry ivanov