rock
 
|tablatures   |lyrics   |discussion forums   |more tabs @ XGuitar.com

Jimi Hendrix tabs

Shes So Fine bass tab

She's So Fine - Jimi Hendrix

    intro/bridge
G|---|--------------------|
D|8\-|--64---64---64---64-|
A|---|--------------------|
E|---|4----4----4----4----|

  1st verse intro   "she walks with a bell-clock.."
G|----------------|---------------------------------------------------4---
D|456-66--456-----|-46-66--456-66---4446-66---456-66--456-66---4446666-64-
A|------66---3-34-|6-----66------66--------66-------66------66------------
E|----------------|-------------------------------------------------------

 "her hair glistens like.."                    "she's so fine"
  ------------------------------------------------------------------|
  ----66666----66666----66666----333466-6--456666666444444444444444-|
  44-4-----44-4-----44-4-----44-4--------66------------------------4|
  ------------------------------------------------------------------|

  2nd verse end
"she's so very very fine"
G|------------------|
D|666666664646-4646-|
A|------------6----6|
E|------------------|

"when I veer.." riff "today"
G|------------3---|--------------------|
D|--3343-3--55-5-5|--------------------|
A|44----4-66----6-|466666664666666646--|
E|----------------|--------------------|

  development and support by
dmitry ivanov