rock
 
|tablatures   |lyrics   |discussion forums   |more tabs @ XGuitar.com

Jimi Hendrix tabs

Remember bass tab

Verse 1
G---------------------|---------------------|
D---------------------|---------------------|
A-------------6-8p6h8-|-------------6-8p6h8-|
E-4-4-4-4-6/8---------|-4-4-4-4-6/8---------|

G------------------------|------------------------|
D--------------8-10p8h10-|--------------8-10p8h10-|
A-6-6-6-6-8/10-----------|-6-6-6-6-8/10-----------|
E------------------------|------------------------|

G---------------------|---------------------|
D-------------6-8p6h8-|-------------6-8p6h8-|
A-4-4-4-4-6/8---------|-4-4-4-4-6/8---------|
E---------------------|---------------------|

G---------------------|------------------------|------------------------|
D---------------------|--------------8-10p8h10-|--------------8-10p8h10-|
A-------------6-8p6h8-|-6-6-6-6-8/10-----------|-6-6-6-6-8/10-----------|
E-4-4-4-4-6/8---------|------------------------|------------------------|

G---------------------|---------------------|
D---------------------|---------------------|
A-------------6-8p6h8-|-------------6-8p6h8-|
E-4-4-4-4-6/8---------|-4-4-4-4-6/8---------|

G---------------------|---------------------|
D---------------------|---------------------|
A-------------6-8p6h8-|-------------6-8p6h8-|
E-4-4-4-4-6/8---------|-4-4-4-4-6/8---------|

G------------------------|------------------------|
D--------------8-10p8h10-|--------------8-10p8h10-|
A-6-6-6-6-8/10-----------|-6-6-6-6-8/10-----------|
E------------------------|------------------------|

G---------------------|---------------------|
D-------------6-8p6h8-|-------------6-8p6h8-|
A-4-4-4-4-6/8---------|-4-4-4-4-6/8---------|
E---------------------|---------------------|

G---------------------|------------------------|------------------------|
D---------------------|--------------8-10p8h10-|--------------8-10p8h10-|
A-------------6-8p6h8-|-6-6-6-6-8/10-----------|-6-6-6-6-8/10-----------|
E-4-4-4-4-6/8---------|------------------------|------------------------|

G---------------------|---------------------|
D---------------------|---------------------|
A-------------6-8p6h8-|-------------6-8p6h8-|
E-4-4-4-4-6/8---------|-4-4-4-4-6/8---------|

Bridge 1
G-----------------|-----------------|-----------------|-----------------|
D-----------------|-----------------|-----------------|-----------------|
A-6-6-6-6-6-6-6-6-|-6-6-6-6-6-6-6-6-|-6-6-6-6-6-6-6-6-|-6-6-6-6-6-6-6-6-|
E-----------------|-----------------|-----------------|-----------------|

Guitar Solo
G------------------------|------------------------|
D------------------------|------------------------|
A--------------8-10p8h10-|--------------8-10p8h10-|
E-6-6-6-6-8/10-----------|-6-6-6-6-8/10-----------|

G---------------------------|---------------------------|
D---------------10-12p10h12-|---------------10-12p10h12-|
A-8-8-8-8-10/12-------------|-8-8-8-8-10/12-------------|
E---------------------------|---------------------------|

G--------------------------|--------------------------|
D--------------10-12p10h12-|--------------10-12p10h12-|
A-6-6-6-6-8/10-------------|-6-6-6-6-8/10-------------|
E--------------------------|--------------------------|

G------------------------|---------------------------|---------------------------|
D------------------------|---------------10-12p10h12-|---------------10-12p10h12-|
A--------------8-10p8h10-|-8-8-8-8-10/12-------------|-8-8-8-8-10/12-------------|
E-6-6-6-6-8/10-----------|---------------------------|---------------------------|

G------------------------|------------------------|
D------------------------|------------------------|
A--------------8-10p8h10-|--------------8-10p8h10-|
E-6-6-6-6-8/10-----------|-6-6-6-6-8/10-----------|

Verse 2
G------------------------|------------------------|
D------------------------|------------------------|
A--------------8-10p8h10-|--------------8-10p8h10-|
E-6-6-6-6-8/10-----------|-6-6-6-6-8/10-----------|

G---------------------------|---------------------------|
D---------------10-12p10h12-|---------------10-12p10h12-|
A-8-8-8-8-10/12-------------|-8-8-8-8-10/12-------------|
E---------------------------|---------------------------|

G--------------------------|--------------------------|
D--------------10-12p10h12-|--------------10-12p10h12-|
A-6-6-6-6-8/10-------------|-6-6-6-6-8/10-------------|
E--------------------------|--------------------------|

G------------------------|---------------------------|---------------------------|
D------------------------|---------------10-12p10h12-|---------------10-12p10h12-|
A--------------8-10p8h10-|-8-8-8-8-10/12-------------|-8-8-8-8-10/12-------------|
E-6-6-6-6-8/10-----------|---------------------------|---------------------------|

Bridge 2
G-----------------|-----------------|-----------------|-----------------|
D-----------------|-----------------|-----------------|-----------------|
A-8-8-8-8-8-8-8-8-|-8-8-8-8-8-8-8-8-|-8-8-8-8-8-8-8-8-|-8-8-8-8-8-8-8-8-|
E-----------------|-----------------|-----------------|-----------------|

Verse 3
G------------------------|------------------------|
D------------------------|------------------------|
A--------------9-11p9h11-|--------------9-11p9h11-|
E-7-7-7-7-9/11-----------|-7-7-7-7-9/11-----------|

G---------------------------|---------------------------|
D---------------11-13p11h13-|---------------11-13p11h13-|
A-9-9-9-9-11/13-------------|-9-9-9-9-11/13-------------|
E---------------------------|---------------------------|

G------------------------|------------------------|
D--------------9-11p9h11-|--------------9-11p9h11-|
A-7-7-7-7-9/11-----------|-7-7-7-7-9/11-----------|
E------------------------|------------------------|

G------------------------|---------------------------|---------------------------|
D------------------------|---------------11-13p11h13-|---------------11-13p11h13-|
A--------------9-11p9h11-|-9-9-9-9-11/13-------------|-9-9-9-9-11/13-------------|
E-7-7-7-7-9/11-----------|---------------------------|---------------------------|

G------------------------|------------------------|
D------------------------|------------------------|
A--------------9-11p9h11-|--------------9-11p9h11-|
E-7-7-7-7-9/11-----------|-7-7-7-7-9/11-----------|

Outro
G-----------------|-----------------|-----------------|-----------------|
D-----------------|-----------------|-----------------|-----------------|
A-9-9-9-9-9-9-9-9-|-9-9-9-9-9-9-9-9-|-9-9-9-9-9-9-9-9-|-9-9-9-9-9-9-9-9-|
E-----------------|-----------------|-----------------|-----------------|

G-----------------|-----------------|
D-----------------|-----------------|
A-9-9-9-9-9-9-9-9-|-9-9-9-9-9-9-9-9-|
E-----------------|-----------------|
  development and support by
dmitry ivanov