rock
 
|tablatures   |lyrics   |discussion forums   |more tabs @ XGuitar.com

Jimi Hendrix tabs

Red House bass tab

Red House - Jimi Hendrix

  intro              
G|------------------|-----------7-6-----------7-911-11-/13-1311-11/13-1311-11/13-1311-1113---
D|------------------|-9-9----9------9-9----9-------------------------------------------------
A|------------------|----9-10----------9-10--------------------------------------------------
E|7-7-7-7-6-6-6-6-7-|----------------------------------------------------------------------2-

---------------------7-911-11-/13-1311-11/13-1311--11--1311--970--|
-2-2---2-2/9-9----9----------------------------------11---------9-|
--------------9-10------------------------------------------------|
2---2-2-----------------------------------------------------------|

  "There's a red house over yonder"
G|--11/13-1311-11/1311----------------11-11/13-1311-11/13-1311-11/13-1311-11/13-----------------
D|9-------------------11------------------------------------------------------------------------
A|----------------------------2-2/5-54------------------------------------------42-2---2-2/5432-
E|----------------------0-02-3------------------------------------------------------2-3---------

                                                "Well I ain't been home.."
-----------11-1113-1311-1113-1311-1113-1311-1113---------------4---4--764-11-11/13-1311-11/13-
----------------------------------------------------4-4---4-42--4-5---------------------------
2---2-2/543-----------------------------------------------------------------------------------
-2-3---------------------------------------------2-2---2-2------------------------------------

1311-11---911--|
-------119-----| This will work for all the verses
---------------|
---------------|

  solo
G|11-1113-1314-1413-13----------764-11-1113131311-1113131311-1113131311-111311------------764----
D|--------------------9-9----9-9----------------------------------------------119-9----9-9---9-9-
A|-----------------------9-10------------------------------------------------------9-10---------9
E|-----------------------------------------------------------------------------------------------


------764---13-1311-1113-1311-1113-1311-111311--------------------4-4764----1-1---1-1----10----|
---9-9---9-9----------------------------------11---2-2---20----4-5-------------------------24--|
-10---------------------------------------------------------2-2----------2-2---2-2----2-2------|
------------------------------------------------2-2---2-2--3-----------------------------------|



  development and support by
dmitry ivanov