rock
 
|tablatures   |lyrics   |discussion forums   |more tabs @ XGuitar.com

Jimi Hendrix tabs

Purple Haze guitar tab

From: Gavin Wright
Artist:	jimi hendrix
Album:	the experience
Song:	purple haze

This is the same version as the other one on this site, i just rewrote it so
 that it was printable. it wont print unless you copy all of it, paste it to
 microsoft word, highlight it all, and change the font to size 8 courier new...
it took me like 4 hours to retype it so i hope you enjoy it.  Peace!

 my thanks to the first guy who put this tab up.
      
PURPLE HAZE
                    BY JIMI HENDRIX

  

TABBED BY GAVIN WRIGHT
                                                                      ~~~~~~~~~~~~~               ~~~~~~~~~~~
 E |-------------------------|----------------------------
 B |-------------------------|----------------------------
 G |-------------------------|----------------------------
 D |-----------8--------8----|--------------%-------------
 A |-------------------------|----------------------------
 E |------6--------6---------|----------------------------

   |-------------------------|------------------------|
   |----------8b-------------|------------------------| 
   |-------7-----------------|------------------------|
   |---/9--------7--------(7)|--5---------------------|
   |-------------------------|-----5-----5/7----------|
   |-------------------------|--------0---------------|

 ~~~~~~~~~~~~~                  ~~~~~~~~~~                   
 E |-------------------------|---------------------------
 B |--------------8b---------|---------------------------
 G |----------7--------------|--------------------------- 
 D |----/9------------7------|-(7) /5-------------------- 
 A |-------------------------|----------5-------5/7------
 E |-------------------------|--------------0------------
 
    ~~~~~~~~~~         ~~~~~~~~~
   |-------------------------|-------------------------|
   |-------------------------|-------------------------| 
   |-------------------------|-------------------------|
   |--------5---7---7B---5---|-------5-----------------|
   |--5/7--------------------|-----------0-----3-----0-|
   |-------------------------|--------------0----------|

                        
                          ~~~~~~~~                     ~~~~~~~~~~~
 E |-------------------------|----------------------------
 B |-------------------------|---------------------------- 
 G |-------------------------|------------------7---7--9--
 D |--------5--7B----5h7-(7)-|-----5-------/9-------------
 A |---5/7-------------------|---------5------------------
 E |-------------------------|----------------------------

   |-------------------------|------------------------|
   |-------------------------|------------------------| 
   |-------0-----------------|------------------------|
   |-------------------------|------------------------|
   |-------------------------|------------------------|     E7#9                                                
   |-------------15 ---------|------------------------|

 E |--------------------------------------------------
 B |---------8---8---------8---8---------8------------ 
 G |---------7---7---------7---7---------7------------
 D |---------6---6---------6---6---------6------------
 A |---------7---7---------7---7---------7------------
 E |--0-----------------------------------------------

   |------------------------------------------------------|
   |--3------3----3---------5-----5---5---7-p-5---5-------|
   |--4------4----4---------6-----6---6---6-------6-------|
   |--5------5----5---------7-----7---7---7-------7-------|                                                                                   
   |------------------------------------------------------|
   |--3------3----3----3----5-----5-------5-------5-------|
 

    
 E |--------------------------------------------------
 B |---------8---8---------8---8----8----8------------ 
 G |---------7---7---------7---7----7----7------------
 D |---------6---6---------6---6----6----6------------
 A |---------7---7---------7---7----7----7---7 -------
 E |--0-----------------------------------------------

   |------------------------------------------------------|
   |--------------3---------------5---5---7-p-5---5-------|
   |--------------4---------------6---6---6-------6-------|
   |--------------5---------------7---7---7-------7-------|
   |------------------------------------------------------|
   |--3------3----3----3----5-----5-------5-------5-------|

     E7#9                                G                 A                           E7#9
 E |----------------------------------|----------3----------------------------------
 B |-------8---8-----8---8---8--------|--3-------3---------5----5---5---7-p-5---5---
 G |-------7---7-----7---7---7--------|--4-------4---------6----6---6---6-------6---
 D |-------6---6-----6---6---6--------|--5-------5---------7----7---7---7-------7---
 A |-------7---7-----7---7---7---7 ---|---------------------------------------------
 E |--0-------------------------------|--3---3--------3----5----5-------5-------5---
          Pur-ple Haze_            all  in   my   brain,_                                   |-- ---------------------------||------------------------------------------------|
   |-----8--8----8-8--8---8----||-----------3---------5-----5---5---7-p-5---5----|
   |-----7--7----7-7--7---7----||-----------4---------6-----6---6---6-------6----|
   |-----6--6----6-6--6---6----||-----------5---------7-----7---7---7-------7----|
   |-----7--7----7-7--7---7----||------------------------------------------------|
   |--0------------------------||--3----3---3----3----5-----5-------5-------5----|
 
      lately things  just don't          seem  the same


      G                  A                             E7#9
  E -----------------------------------------|
  B ----------8------8------8----8------8----|
  G ----------7------7------7----7------7----|
  D ----------6------6------6----6------6----|
  A ----------7------7------7----7------7----|
  E ---0-------------------------------------|
.    Act - in'    funny,         but  I

      G                     A                                E5
 E |------------------------------------------------------
 B |--3------3----3---------5-----5---5---7-p-5---5------- 
 G |--4------4----4---------6-----6---6---6-------6-------
 D |--5------5----5---------7-----7---7---7-------7-------
 A |------------------------------------------------------
 E |--3------3----3----3----5-----5-------5-------5-------
      don't know why,                                         .                                         

   |---------------------|-------------------------------|
   |---------------------|-------------------------------|
   |---------------------|-------------------9/11--9---7-|
   |---------------------|-------------------------------|
   |---------------------|-------------------7/9---7---5-|
   |--0------------------|-------------------------------|
    s'cuse me;____  while I   kiss  the sky
                                    ~~~~~~~~~      E7#9                           G                  A
 E |------------------------------------------|--------------------------------
 B |-------------8b----------------8b---------|------8--------8-----8-8-8-8---- 
 G |--------7----------------7----------------|------7--------7-----7-7-7-7----
 D |---/9-------------/9----------------------|------6--------6-----6-6-6-6----
 A |------------------------------------------|------7--------7-----7-7-7-7----
 E |------------------------------------------|--0---------------------------0-
                                               
                                                      Pur - ple Haze
   |---------------------------------|-----------------------------------|
   |------------3--------5---5-5-5---|--------8--------------------------|
   |------------4--------6---6-6-6- -|--------7--------------------------|
   |------------5--------7---7-7-7- -|--------6--------------------------|
   |---------------------------------|--------7---------5h7-5------------|
   |--3----3----3----3---5---5---5---|--0----------5h7---------7--6--5---|
    all   a   - round,_                don't know  if   I'm    com - in'


     E7#9                                 G                  A                            E7#9
 E |-----------------------------------------------|--------------------------------|
 B |-----------3---------------5---5---7---5---5---|-----8-----8--------------------|
 G |-----------4---------------6---6---6---6---6---|-----7-----7--------------------|
 D |-----------5---------------7---7---7---7---7---|-----6-----6--------5-----------|
 A |-----------------------------------------------|-----7-----7-----5----7-5-------|
 E |--3----3---3----3----5-----5-------5-----------|--0------------7----------7-6-5-|
    up   or  down.                                     Am  I  hap - py      or

      G                     A                                E5
 E |------------------------------------------------------
 B |--------------3---------5-----5---5---7-p-5---5------- 
 G |--------------4---------6-----6---6---6-------6-------
 D |--------------5---------7-----7---7---7-------7-------
 A |------------------------------------------------------
 E |--3------3----3----3----5-----5-------5-------5-------
      in  mis - er - y?                          


   |-------------------------|-------------------------------|
   |-------------------------|-------------------------------|
   |-------------------------|-------------------9/11--9---7-|
   |-------------------------|-------------------------------|
   |-------------------------|-------------------7/9---7---5-|
   |--0----------------------|-------------------------------|
  What-ev - er  it  is__  that  girl  put a spell on me._


                                         A                                B        ~~~~~~~           ~~~~~~
 E |----------------------------------|------------------------------
 B |----------------8bb----------8 (0)|-----------12B------------12B- 
 G |-----------7-------------7--------|-------9--------------9-------
 D |-----/9-------------/9------------|-/11------------/11-----------
 A |----------------------------------|------------------------------
 E |----------------------------------|------------------------------
                                                Help me!                           

   
   |-------------15---------------15-------12--|
   |-------------------------------------------|
   |--------12----------------12---------------|
   |---/14---------------/14-------------------|
   |-------------------------------------------|
   |-------------------------------------------|
  Help me!
                                  Guitar solo (w/Octavia)
        D   ~~~~~~      ~~~~~~                               E7#9
 E |------------------------------------------------------
 B |---------------15----------15--15-----15-----15------- 
 G |------14B---------14b----------14B----14B----14B------
 D |------------------------------------------------------
 A |------------------------------------------------------
 E |------------------------------------------------------
              Oh,____   no,____        no!
   |------------------------------------------------------|
   |------------------------------------------------------|         
   |--16--16-h-18-18-h-18-p-16--16 14----14h16p14---14 13-|
   |------------------------------------------------------|
   |------------------------------------------------------|
   |------------------------------------------------------|

F#5                 D5                             E7#9 ~~~~~~~~~~~~~
 E |------------------------------------------------------
 B |------------------------X----------------------------- 
 G |---13/14--------14B-----X----------12---14--12--------
 D |-------------------------------14---------------14----
 A |------------------------------------------------------
 E |------------------------------------------------------

   |------------------------------------------------------|
   |------------------------------------------------------|
   |----12---------------11/12 11--11---------------------|
   |---------------------------------------14-----12------|
   |------------------------------------------------------|
   |------------------------------------------------------|

          F#5                        D5                        
 E |------------------------------------------------------
 B |------------------------------------------------------ 
 G |------------------------------------------------------
 D |--------12--14--12---11--12-----------------14---16---
 A |------------------------------------14/16-------------
 E |------------------------------------------------------
                        E7#9                                        
   
   |------------------------------------------------------|
   |------------------------------------------------------|
   |------------------------------------------------------|
   |---(16)----14h16p14 12--12/14--14----14/16---12-------|
   |------------------------------------------------------|
   |------------------------------------------------------|


         F#5                          D5                     E7#9
 E |------------------------------------------------------
 B |---------------------------------------17 ------------ 
 G |------------------------------------------------------
 D |-----16--12--16--12--16-----12-------------12---14----
 A |------------------------------------------------------
 E |------------------------------------------------------


   |----------------14-------12h14p12------12-------------|
   |----------------------------------15-------14h15p14---|
   |--11---12---------------------------------------------|
   |------------------------------------------------------|
   |------------------------------------------------------|
   |------------------------------------------------------|

     F#5                                         E5            ~~~~~~~~~~                      

 E |--------------------------------------------|
 B |-----14---12B---12h14h12--------15----------| 
 G |-------------------------14B---------14B----|
 D |--------------------------------------------|
 A |--------------------------------------------|
 E |--------------------------------------------|
                                                               Oh,                              ah!

   |-------------------------------|-----------------------------|
   |------------8b-----------------|-----------------------------|
   |--------7----------------------|-----------------------------|
   |--/9------------7----------(7) |/5---------------------------| 
   |-------------------------------|------5-------5/7------------|
   |-------------------------------|----------0------------------|








 E |-------------------------|-----------------------------------
 B |--------------8b---------|----------------------------------- 
 G |----------7--------------|-----------------------------------
 D |----/9------------7------|-(7) /5----------------------------
 A |-------------------------|----------5-------5/7--------------
 E |-------------------------|--------------0------------------0-
                   Oo,                          ah!                               Oo,
   |-------------------------------------------|
   |-------------------------------------------|
   |-------------------------------------------|
   |-----5h7-7b--7B-------------------5--------|
   |-/7----------------------------------7-----|
   |-------------------------------------------|


 
 E |-------------------------------------|--------------------------------
 B |-------------------------------------|-----------8b-------------------
 G |----------------------------------(0)|------7-------------------------
 D |----5h7--7-7B---7p5------------------|-/9------------7------------(7) 
 A |-------------------------------------|--------------------------------
 E |---------------------3---------------|--------------------------------
                       ah!                              Oo,                                 ah!        Yeah!

   |----------------------------------||----------------------------------|
   |----------------------------------||-------8---8-----8---8---8----X --|
   |--------------------------------X-||-------7---7-----7---7---7----X --|
   |/5------------------------------X-||-------6---6-----6---6---6--------|
   |------5----------5/7------------X-||-------7---7-----7---7---7--------|
   |------------0-----------------0---||--0-------------------------------|
                                           Pur-ple Haze_            

     E7#9                                G                 A                           E7#9
  E ---------------------------------------------|---------------------------|
  B ------3--3--3---3-/-5----5---5---7---5-------|-----8--8----8-8--8---8----|
  G ------4--4--4---4-/-6----6-------6-------6---|-----7--7----7-7--7---7----|
  D ------5--5--5---5-/-7----7-------------------|-----6--6----6-6--6---6----|
  A ---------------------------------------------|-----7--7----7-7--7---7----|
  E --3---3--3--3---3-/-5----5-------------------|--0----------------------0-|
     all  in   my   eyes,__          uh,                  don't know   if it's_     


      G                  A                             E7#9
 E |------------------------------------------------
 B |------3----3----3-/--5-----5---7---7-p-5-----0--
 G |------4----4----4-/--6-----6---6---6-------6----
 D |------5----5----5-/-----------------------------
 A |------------------------------------------------
 E |--3---3----3----3-/--5--------------------------
      day   or night.                                          


   |-----------------------------------------------|
   |----------8------8---8----8---8----------------|
   |----------7------7---7----7---7----------------|
   |----------6------6---6----6---6------6---------|
   |----------7------7---7----7---7-----------7 ---|
   |---0-------------------------------------------|
        You   got   me   blow  -  in',


 






  G                     A                          E5  
 E |------------------------------------------------
 B |--3---3----3------------5------8 7----------5---
 G |--4---4----4------------6------6----------------
 D |--5---5----5------------7------7----------------
 A |------------------------------------------------
 E |--3---3----3------------5-----------------------
     blow-in' my  mind,__                is it                          

   |-----------------------------------------------| 
   |-----------------------------------------------|
   |-----------------------------------------------|
   |-----------------------------------------------|
   |-----------------------------------------------|
   |---0-------------------------------------------|
        to  -  mor  -  row,   or  just   the





 E |------------------------------------------------------
 B |------------------------------------------------------ 
 G |----------------------------9/11----9------7----------
 D |------------------------------------------------------
 A |----------------------------7/9-----7------5----------
 E |------------------------------------------------------
       end    of   time?

   |--------------------------------------------------|
   |------------8bb---------------------8bb------(8) -|
   |-------7---------------------7--------------------|
   |--/9-------------------/9-------------------------|
   |--------------------------------------------------|
   |--------------------------------------------------|


                                        B                                                          D#
      A(sus2)                  ~~~~~~~~~~~~                       ~~~~~~~~~~~~
 E |-------------------------------|----------------------------------
 B |-------------------------------|----------------------------------
 G |-------------------------12----|---(12)-----------------9----12---
 D |--------------------12---------|-----------------/11--------------
 A |-------------/14---------------|----------------------------------
 E |-------------------------------|----------------------------------
 Gtr1
 E |-----------0----0---0----------|-----------0----0------------0----
 B |-----------0----0---0----------|-----------0----0---0---0----0----
 G |---2-------2----2---2----2/4---|-----------4----4---4---4----4----
 D |---2------------2---2----2-----|----------------------------------
 A |---0---------------------0/2---|-----------2----2---2---2----2----
 E |---0---------------------------|----0---------------0---0---------
    Gtr.II
            Oo,__                            help  me,          
       D   
   |-----------------------------------------||----------------------------------
   |---------------12--14-15--14 12h14p12----||-------------15B----15--15--15-15
   |----(12)------------------------------14-||-----12---------------------------|
   |-----------------------------------------||----------------------------------|
   |-----------------------------------------||----------------------------------|
   |-----------------------------------------||----------------------------------|
Gtr.I
   |-----------------------------------------||----------------------------------|
   |-----------------------7---7-----8----8--||-------------8------8-------------|       
   |------7------7----7----7---7-----8----8--||-------------7------7-------------|
   |------7------7----7----7---7-----8----8--||-------------7------7---7--7------|
   |------5------5----5----5---5-----6----6--||-------------6------6---9--9--9h11|
   |------0------0----0----------------------||-----0------------------0--0------|

        ahh,              yeah,_____
     
E7#9                                 F#5            D5                 E7#9
           ~~~~~~     ~~~~~~~~~~~~~~~~~~~~~~~~~~~~~~~~~~~~~~~~~~~~~~    ~~~~~~~~~~~~~~~~~~~~~~~~~~~~~~~~~~~~~~ 
  E ----------------------------------|-----------------------------------------|
  B --15---15-15-15-15-15-15-15--15B--|--15--15--15--15--15---15---15---15---15-|
  G ----------------------------------|-----------------------------------------|
  D ----------------------------------|-----------------------------------------|
  A ----------------------------------|-----------------------------------------|
  E ----------------------------------|-----------------------------------------|
    Gtr.I                                                                      (pick randomly)
    ----------------------------------|-----------------------------------------|
    ----------------------------------|-----------------------------------------|
    ----0-------0----7---7----6---6---|-----               ---------------------|
    -------0----0---------------------|----2-               -0------------------|
    -----------------5---5----4---4---|-----------------------------------------|
    ----------------------------------|-----------------------------------------|
    Gtr.II      Pur-ple  Haze,_  Yeah.                     Oh,     no,_       

   |----------------------------------|----------------------------------|
   |--15---15--15-15-15-15--15--15-15-|--15---15-15-15-15-15-15-15--15---|
   |----------------------------------|----------------------------------|
   |----------------------------------|----------------------------------|
   |----------------------------------|----------------------------------|
   |----------------------------------|----------------------------------|
     no,__                          oh,_
      F#5             D5                 E7#9                              F#5                   D5
 E |----------------------------------|----------------------------------
 B |----------------------------------|----------------------------------
 G |-----               --------------|------                  ----------
 D |-----2               0------------|------2                  0--------
 A |----------------------------------|----------------------------------
 E |----------------------------------|----------------------------------
 



   E -----------------------------------------|
   B --15--15--15--15--15---15---15---15---15-|
   G -----------------------------------------|
   D -----------------------------------------|
   A -----------------------------------------|
   E -----------------------------------------|
    Gtr.I                                                                                     
 
   E-----------------------------------------|
   B-----------------------------------------|
   G-----                    ----------------|
   D----2-                    0--------------|
   A-----------------------------------------|
   E-----------------------------------------|
 
 E |-----------------------------------------------------
 B |----15----15---15-15-15------15B-----15^(20)-15^(18)- 
 G |-----------------------------------------------------
 D |-----------------------------------------------------
 A |-----------------------------------------------------
 E |-----------------------------------------------------
      you're  mak-in'  me         blow   my   mind...                                          

   |-----------------------------------------------------|
   |---15B----15^(18)---15---15--15--15--15B-15^(18)-15B-|
   |-----------------------------------------------------|
   |-----------------------------------------------------|
   |-----------------------------------------------------|
   |-----------------------------------------------------|
   ma-ma...
                             Pur  -  ple    Haze...



              ~~~~~~~~~~~~~~~~~~~~~~~~~~~~~~~~~~~~~~~~~~~~~~~~~~~~~~~~~~~~~~~~~~~~~~~~~~~~      
 E |-----------------------------------------------------
 B |----15B---15---15----15----15----15----15----15---15- 
 G |-----------------------------------------------------
 D |-----------------------------------------------------
 A |-----------------------------------------------------
 E |-----------------------------------------------------
       no,         no....                    no...                                             

   |-----------------------------------------------------|
   |-15---15---15---15---15---15---15---15---15---15--15-|
   |-----------------------------------------------------|
   |-----------------------------------------------------|
   |-----------------------------------------------------|
   |-----------------------------------------------------|
      no,___
                        Pur  -  ple   Haze...
  

       E7#9                                                  F#5                          D5
    ~~~~~~~~~~~~~~~~~~~~~~~~~~~~~~~~~~~~~~~~~~~~~~~~~~~~~~~~~~       
 E |-----------------------------------------------------
 B |----15^(18)----------15B---15----15----15----15---15- 
 G |-----------------------------------------------------
 D |-----------------------------------------------------
 A |-----------------------------------------------------
 E |-----------------------------------------------------
          ___      it's     pain      -       ful, ba - by...
                     
   |-----------------------------------------------------|
   |-15---15---15---15---15---15---15---15---15---15--15-|
   |-----------------------------------------------------|
   |-----------------------------------------------------|
   |-----------------------------------------------------|
   |-----------------------------------------------------|
        Pur - ple  Haze...

       E7#9                                                  F#5                        D5
        ~~~~~~~~~~~~~~~~~~~~~~~~~~~~~~~~~~~~~~~~~~~~~~~~~~~~~~~~~~~~~~~~    
 E |-----------------------------------------------------
 B |----15---15---15-----15----15----15----15----15---15- 
 G |-----------------------------------------------------
 D |-----------------------------------------------------
 A |-----------------------------------------------------
 E |-----------------------------------------------------
          
   |-----------------------------------------------------|
   |-15---15---15---15---15---15---15---15---15---15--15-|
   |-----------------------------------------------------|
   |-----------------------------------------------------|
   |-----------------------------------------------------|
   |-----------------------------------------------------|

        Pur  -  ple  Haze...                                                                     fade out



 
  development and support by
dmitry ivanov