rock
 
|tablatures   |lyrics   |discussion forums   |more tabs @ XGuitar.com

Jimi Hendrix tabs

Message Of Love guitar tab

#----------------------------------PLEASE NOTE---------------------------------#
#This file is the author's own work and represents their interpretation of the #
#song. You may only use this file for private study, scholarship, or research. #
#------------------------------------------------------------------------------#

MESSAGE OF LOVE BY JIMI HENDRIX
Tabbed by MaxxDaddy

Intro:
------------------------------------------------------------------
------------------------------------------------------------------
------4-4-5-5-6-6-7-7-8-8-9-9-10-10-11-11-12-12-13-13-14-14-15-15-
------------------------------------------------------------------
-14\--2-2-3-3-4-4-5-5-6-6-7-7-8---8-9--9--10-10-11-11-12-12-13-13-
------------------------------------------------------------------

-------------------------
-------------------------
-16-16-17-17-18-18-19-19-
-------------------------
-14-14-15-15-16-16-17-17-
-------------------------

2X
-15-14\----------------------------------16------16-----16-------16-
-----------------9--------10----------------------------------------
-12-11\----------9---------9--9-9--15/16----15/16--15/16---15/16----
------------9/11-----------7----------------------------------------
-------------------7-7--------7-7-----------------------------------
--------------------------------------------------------------------
A Section:
-10--9------------------------
--------------9-------10------
-7---6--------9--------9-9-9--
---------9/11----------7------
----------------7-7------7-7--
------------------------------

First break only:

-------------------------8----------------------8---------------------12~~
-10-11-12----------------10(12)--------------8-10(12)-8--------8-10p8-----
---------12p9--------12~--------12p9------9---------------7-9-------------
--------------9--12------------------9-12---------------9-----------------
--------------------------------------------------------------------------
--------------------------------------------------------------------------


subsequent breaks
4X
-------------------------
-10p8-10p8-10------------
-----9----9----9p7-9p7-9-
------------------9---9--
-------------------------
-------------------------

Section B:
2X
--------------------------------------------10----10------------
-9--9--10-10---8--8--7--7--9--9--10--10--8--10h12-10------------
-9--9---9--9---7--7--7--7--9--9---9---9--7-----------12p10------
-9--9---7--7---5--5--7--7--9--9---7---7--5-----------------12---
-7--7----------------5--5--7--7---------------------------------
----------------------------------------------------------------

Bridge (sing along with notes):
-----------------------------------------|---------------------------------
-------10(12)-10--8----------------------|-10(12)-10-8--10(12)-8-----------
-7-8-9--------------9--9-7---9p7-9p7-9p7-|-----------------------9p7-9p7---
9-------------------------9--------------|-------------------------------9-
-----------------------------------------|---------------------------------
-----------------------------------------|---------------------------------

-----------|-------10---------------------------------|-------10------10-----
-----------|-10(12)--(12)10-8--10---------------------|-10(12)--10(12)--(12)-
-9p7---7t9-|-----------------9----9(10)p7---9p7---7t9-|----------------------
-----9-----|------------------------------9-----9-----|----------------------
-----------|------------------------------------------|----------------------
-----------|------------------------------------------|----------------------

--------------------|-------------------------------------------------------
-10(12)-------------|--8(9)-------8(10)-8-10p8--------10-10-8-----------8---
-------9p7-9p7--7t9-|------9-7--9-------------9-9--7-9--------9--7-9-7-9--9-
--------------9-----|-------------------------------------------------------
--------------------|-------------------------------------------------------
--------------------|-------------------------------------------------------

solo:
-/12--12--------------------12---/16-15-14--
-/12--12--14--12---14--14---12--------------
-/13--13--14--13---14--14---13---/16-15-14--
-/14--14--14--14---14--14---14--------------
-/14--14--12--14---12--12---14--------------
-/12--12--------------------12--------------

-15-14------12------12-----12-----12-----12-----12-----12-----12-
-----------12------12-----12-----12------------------------------
-12-11-14(16)-14(16)-14(16)-14(16)---12(14)-12(14)-12(14)-12(14)-
-----------------------------------------------------------------
-----------------------------------------------------------------
-----------------------------------------------------------------

--------12-----12-----12-----12------------------------------
------12-----12-----12-----12----15(17)~-15p12-15p12---------
-14(16)-14(16)-14(16)-14(16)------------------------14-12----
----------------------------------------------------------14-
-------------------------------------------------------------
-------------------------------------------------------------

--------12---------12------15p12------15p12----15p12----15p12-----
------12--15p12------15p12------12--12-----12-------12-------12---
-14(16)--------(16)---------------14---------14-------14-------14-
------------------------------------------------------------------
------------------------------------------------------------------
------------------------------------------------------------------

-15-15-15-15-15p12--15p12--15p12--15p12---15p12--------------------12-
------------------12-----12-----12-----12------15p12-------------12---
----------------------------------------------------14p12--14(16)-----
---------------------------------------------------------14-----------
----------------------------------------------------------------------
----------------------------------------------------------------------

-------17(19)17-15~-15~-17(19)17-17p15--------------------------------------
-15(17)-------------------------------17p15--15(17)-15(17)------15(17)------
-------------------------------------------14-------------14-12-------14-12-
----------------------------------------------------------------------------
----------------------------------------------------------------------------
----------------------------------------------------------------------------

-------------------------------------------------------
-15(17)------15(17)------------------------------------
-------14-12-------14-12-14(16)14-12-14(16)14-12---12~-
-------------------------------------------------14----
-------------------------------------------------------
-------------------------------------------------------

-----15-----12----15-14-15---17----------------------------------------------
-12-12--12-12---12---12-12--12--15-15-12-------------------------------------
-12-----12----12---12--12--12---12-12-12-12-12-12-12-------------------------
-----------------------------------------14-14-12-12-14-14-12-12-------------
-----------------------------------------------------14-14-12-12-15-15-------
-----------------------------------------------------------------15-15-12-12-

-------------------------------------------
-12-12-12-12-12--------12-12-12-12-15(17)~-
-12-12-12-13-12--------13-13-13-13---------
-12-12-12-14-12-12-12--14-14-14-14---------
-------------------14--14-14-14-14---------
-------------------------------------------

4X
---------------10(12)-(12)~-
-10p8--10p8-10--------------
-----9-----9----------------
----------------------------
----------------------------
----------------------------

-------------------------------------------------
-10p8--10p8--10p8--10p8--10p8--10p8--10p8--10p8--
-----9-----9-----9-----9-----9-----9-----9-----9-
-------------------------------------------------
-------------------------------------------------
-------------------------------------------------

-------------------------------------------------------------
-------------------------------------------------------------
-4-4-5-5-6-6-7-7-8-8-9-9-10-10-11-11-12-12-13-13-14-14-15-15-
-------------------------------------------------------------
-2-2-3-3-4-4-5-5-6-6-7-7-8---8-9--9--10-10-11-11-12-12-13-13-
-------------------------------------------------------------

-------------------------
-------------------------
-16-16-17-17-18-18-19-19-
-------------------------
-14-14-15-15-16-16-17-17-
-------------------------



Lyrics:
We're travelin' a speed of a reborn man,
we got a lot of love to give from the mirrors of our hand
I said Message of Love don't you run away
Look at your heart baby, come along with me today

Well I am what I am, thank God
Some people just don't understand
Find yourself first, and then your tool
Find yourself first, don't be no fool
Here comes a woman wrapped up and chained
Messin' with those fools baby, your life in pain
If you wanna be free come along with me
Don't play with man they never understand
I said find yourself first, and then your talent
Work hard in your mind for it to come alive
and then prove to the man you're as strong as him
'cause in the eyes of God we're all children to him

Everybody love alive 
Everybody live alive
Everybody come alive 
Everybody hear my message!
  development and support by
dmitry ivanov