rock
 
|tablatures   |lyrics   |discussion forums   |more tabs @ XGuitar.com

Jimi Hendrix tabs

May This Be Love guitar tab

MAY THIS BE LOVE BY JIMI HENDRIX
tabbed by MaxxDaddy

Intro:
(w/slide)
-5/------20\19-----------------------------------------------------
-----10/-------18\17--------15-14-------------11\10------9---------
-5/-------------------16\15-------13\12-------------10-----8\7-----
----------------------------------------12\11----------9-------7\6-
-------------------------------------------------------------------
-------------------------------------------------------------------

-----------------------------------------
-------4----4\3--3----3------------------
-6-5\------------3----------6-----5--5\4-
-6-5\----4----3-------------6-----5--5\4-
--------------------3----0-----6---------
-----------------------------------------

verse:

 E              F#m7(sus)/E               A9                           E  
-----0-----------------0-------------------------------5------------------0-
-----0-----------------0---------------------2h5p2-------2----------------0-
-----1-----------------2-------------------4-------4-------4--2/4/6\4\2---1-
--------2/4\2--------4---2h4-2h4p2----------------------------2/4/6\4\2-----
---2----------4--------------------2h4-2-0-----------0----------------------
-0--------------0-2-----------------------------------------------------0---

licks between verses:
(w/slide)
  1        2(harm.)   
-3/14---|-14--------|---------------------------------------------
--------|---14------|-----------------------------------------
--------|-----14----|-----------------------------------------
--------|-----------|---------------------------------------
--------|-----------|---------------------------------------
--------|-----------|---------------------------------------

Solo:
---------------------------------------------------------------------
-12/14~~--12-12/14~~--14-12\9/12\9\7\5/7\2/5---5-5-7/9-7/9-9\7\5/7~~-
---------------------------------------------------------------------
---------------------------------------------------------------------
---------------------------------------------------------------------
---------------------------------------------------------------------

------------------------------------------------------------------------------
-9-10-9-10-9\7\5-7-5-7/9~~-14-12-14-12-14-12-14-12-14-12-14-12-14-12-14-12-14-
------------------------------------------------------------------------------
------------------------------------------------------------------------------
------------------------------------------------------------------------------
------------------------------------------------------------------------------

----------------------------------------------------------
-14\12\9/12~~-9-12-9-12-9-10-9-10-9\7\5-7--5h7-5\3\2/5~~--
----------------------------------------------------------
----------------------------------------------------------
----------------------------------------------------------
----------------------------------------------------------

-----------------------------------------------------------
-5\2-0-2/5/7-5-7-5-0-5-7/9~--9/10\9-7-9-7\5~-/12-14-12\9\7-
-----------------------------------------------------------
-----------------------------------------------------------
-----------------------------------------------------------
-----------------------------------------------------------

-----------------------------------------------------------------------------
-9-7-9-7\5-/7-/9\7\5~-12/14/17-14/17-14\12-14-12-14-12-14~-14-12-14\12-9/12~-
-----------------------------------------------------------------------------
-----------------------------------------------------------------------------
-----------------------------------------------------------------------------
-----------------------------------------------------------------------------

-----------------------------------------------------------------
-12~-14-12-14-12\9/10-12-9-10-9\7/9-9-7-9-7\5/7\2~-0-2-0-2/5-7/9-
-----------------------------------------------------------------
-----------------------------------------------------------------
-----------------------------------------------------------------
-----------------------------------------------------------------

--------------------------------------------------------------
-7-9-7/9~-9\7/12~\9\7/9-10-9-10-9\7-9/12-9\7\5-7-5-7-7-5-7-5~-
--------------------------------------------------------------
--------------------------------------------------------------
--------------------------------------------------------------
--------------------------------------------------------------

--------------------------------------------------------------------------
-7-5-7-7-5-7-5~~-/14~~-12-14-12-14-12-14-12-14-12-14-12-14-12-14-12-14-12-
--------------------------------------------------------------------------
--------------------------------------------------------------------------
--------------------------------------------------------------------------
--------------------------------------------------------------------------

--------------------19------------------17------
-14-12-14-12-12/19---19-----------5------17-----
----------------------19--18--4/6---4-----16----
-----------------------16-----------------------
---------------------------------------------17-
------------------------------------------------

Lyrics:

E                     F#m7(add4)/E
Waterfall nothing can harm me at all.
            A9                         E
My worries seem so very small with my waterfall.


E            F#m7(add4)/E
I can see my rainbow calling me.
     A9                         E
Through the misty breeze of my waterfall.


Bridge

D                             G#   A   A#
Some people say day-dreaming's for  all the huh!
B                      E5
Lazy minded fools with nuthin' all to do.
D           A          A(add9) G# G
So let then laugh, laugh at me.
F#
(Spoken) So just as long as I have you
D                          A
(Sung) to see me through 
                          B
I have nuthin to lose 'long as I have you.


E(add9)               F#m7(add4)/E
Waterfall, dont ever change your ways,
                    A(add2)
fall with me for a million days,
 E     Esus4    E
oh my waterfall.

Solo



  development and support by
dmitry ivanov