rock
 
|tablatures   |lyrics   |discussion forums   |more tabs @ XGuitar.com

Jimi Hendrix tabs

May This Be Love bass tab

Song:May this be love
Author:Jimi Hendrix
Album:Experience

The bass comes in at 15 sec....Waterfall!!

G---------8---------x-8/10/8--------8---8-8--------8/10/8----------
D-----------8----------------x----8---8-----8----8-----------------
A-6---6-6-----x--6--------------6--------------6-------------------
E---6--------------------------------------------------------------

G---------------------------------------------------------------
D---------------------------------------------------------------
A-6/-11-11--8-8/10-10--6-6-6-6--rest----------------------------
E---------------------------------------------------------------

G-----8---8/10-8----------8/10-8----------8---8/10/8------8/10/8---
D---8---8--------11/----8--------x-8----8---8-----------x----------
A-6-------------------6---------------6---------------6------------
E------------------------------------------------------------------

G---------------------------------------------------------------
D--------13/15-13----13/15-13-/17-15-13/15----------------------
A-6/-11-----------15------------------------6--rest-------------
E---------------------------------------------------------------

Bridge:

G------------------------------------------------------------------
D------------------------------------7/8-7/8-7/8-------------------
A-4-3/4-3/4-3/4----------------------------------4/6-6-6-6-6-6-6-6-
E----------------3/4-3/4-3/4-3-4-5-6-------------------------------

G-------------------------------------------------------------------
D-------------------------------------------------------------------
A-4-3/4-3/4-3/4-2-----------------------4-4-4-4---------------------
E------------------4-4-4--3--2--1-1-1-1---------4-4-4-5-6-6-6-6-6-6-

...And Waterfall again....

G-----8---8/10-8---------8/10/8-------8---8/10-8-------------
D---8---8--------11----x------------8---8----------8/10/8----
A-6------------------6----------x-6--------------6-----------
E------------------------------------------------------------

G--------------------------------15---------------------------improvise
D--------13/15-15----13-15-15/17----17-15/13-13/15------------on this one
A-6/-11-----------15--------------------------------6---------
E-------------------------------------------------------------

Then play the last part during Jimi's solo and improvise a lot
because you'll feel better!!!!
This is really a great song...little psichadelic one...
Please rate this....-Mutar-
  development and support by
dmitry ivanov