rock
 
|tablatures   |lyrics   |discussion forums   |more tabs @ XGuitar.com

Jimi Hendrix tabs

Love Or Confusion guitar tab

LOVE OR CONFUSION BY JIMI HENDRIX (Radio One Version)
transcribed by Maxxdaddy

Intro:
  G5                
------------------------
--3~-----------------3--
--0~-----------------0--
--5~-----------------5--
------------------------
------------------------
 G5            
-----------------------------------------------------------------
--3-----3--3--3--3--3-------3------3-----3--5(7)5-3--------3-----
--0--0--0--4--0-----0--4p0--0---0--0--0--0--------0--0h4p0-0-----
--5-------------------------5---5--5-----5-------------------5\3-
-----------------------------------------------------------------
-----------------------------------3-----------------------------
  Fsus
---------------------------------------
--1--1-1-1----------------------1--1/3-
--0--0-0-0--2(4)-0h2p0---0t2~---0------
--3--------------------------------3/5-
---------------------------------------
---------------------------------------

G5                                       Fsus 
Is that the stars in the sky or is it uh- rain fallin' down
G5                                    Fsus 
Would it burn me if I touched the sun so big and so round
    (4x)
||-----------------------------------||
||-----------------------------------||
||-----------10----------10----------||
||-12-12-12--12p10-12p10-12p10-12p10-||
||-10-10-10--------------------------||
||-----------------------------------||
Oh my heart burns with feeling yeah 
but my mind is so cold and reeling
Is this love baby? 

bar dive\\//    
-----------
-----------
-----------
-8-7-6-5~~-
-----------
-6-5-4-3~~-
Yeah! Or is it confusion?

Oh my head is pounding pounding going round and around
Must there always be these colors without names without sounds?
You know I love you baby 
your mind is telling me something altogether different

  Chorus

Solo:

A
--------5---5---------------------------------------
-8(10)~---8-5---------------------------------------
---------------7(9)--5-5h7p5---5-7(9)-5-7---5-------
-----------------------------7------------7---7-5p0-
----------------------------------------------------
----------------------------------------------------

F                            D
--------------------------------------------
-----------8--------------------------5~-5~-
------8h10-8------------------------7-5~-5~-
---10---------10-9-8-6(7)-------7h9---------
-8------------------------8--/9-------------
--------------------------------------------

   A5 (4x)       F                   D
-||--5--5----||-1----1-----1---1-------5----5---5--------
-||5h7---5---||-1h3--1-----1h3-1--1----5h7--5---5--7-5---
-||-------5--||---------2---------2--0--------7----7-5---
-||--------7-||----------------------------------------0-
-||----------||----------------------------------------0-
-||----------||------------------------------------------

---------------------------------------------
---------------------------------------------
-5/7--7--7~~-----7--7--5--5--5/7--7--7--7--7-
---------------------------------------------
-3/5--5--5~~--5--5--5--3--3--3/5--5--5--5--5-
---------------------------------------------

-------------------------------------------------------------
-------------------------------------------------------------
-7--7--7--7--7--7\5--5--5-----10-10---------10\5-5-5-5-5-----
---------------------------0--10-10--10-10-------------------
-5--5--5--5--5--5\3--3--3--------------------8\3-3-3-3-3-----
-------------------------------------8--8----------------10\-

Repeat 2nd verse

Outro:

bar dive\\\\\////         (3x)
||---------------------------------------------------
||-0----------------3-3h5-3--------3-----1-------1h3-
||-0----------------0-0---0-----0--0-----0--0-0--0---
||-5----------------5-----5--5--5--5--5--3----3------
||---------------------------------------------------
||------------------3--------------------------------

---------------||
----------1--3-||
-2(4)2p0--0--0-||
----------3--5-||
---------------||
-------------3-||

bar dive\\\\\\///////
-------------------------
---------3~~-------------
---------0~~-------------
---------5~~-------------
-------------------------
---------3~~-------------
  development and support by
dmitry ivanov