rock
 
|tablatures   |lyrics   |discussion forums   |more tabs @ XGuitar.com

Jimi Hendrix tabs

Long Hot Summer Nights guitar tab

                   Long Hot Summer Nights  -  Jimi Hendrix Experience
                 -----------------------------------------------------   
                 

                             from the album 'Electric Ladyland'



INTRO:
------

E----------------------------------------------------
B-----------------------------------------------------
G---------------------3----------5-5-------3------------
D----------2b-2b------2----------4-4-------2-------------
A--------2-------------------------------------------------
E--0-2-4----------0-2-----0-4-4-4------0-2--------------
        


E-------------------------------------------------------
B-------------------------------------------------------
G---------------------3----------5-5------6-4------------
D----------2b-2b------2----------4-4----------6-5-4--2------
A--------2-------------------------------------------------
E--0-2-4----------0-2-----0-4-4-4--------------------
        


Then the chords start of with :

C#9   F#  G#  F#  C#9  D#9  G#  F#

C#9   F#  G#  G  F#     

E   B   A   F#  B5  C#5


How's that for starters ?


Howard










  development and support by
dmitry ivanov