rock
 
|tablatures   |lyrics   |discussion forums   |more tabs @ XGuitar.com

Jimi Hendrix tabs

In From The Storm bass tab

In From The Storm -- Jimi Hendrix

  verse
G|--------------------/64---------------------------/10108-------|
D|---68------------68----6---------------------------------10108\|
A|68----68------68---------86--6----86---------------------------|
E|--------4-641--------------68---68--8-861014-01146-------------|

  verse variation
G|--------------------/64---------------------------/10108-------|
D|---68---6--------68----6-------------------3-------------10108\|
A|68----68--86--68---------86--6----86---------------------------|
E|------------6--------------68---68--8-86101--01146-------------|

  chorus
G|-----------------6---------------|
D|----------------8-6--------------|
A|86------6-68--6-----6-6--6-6-8-6-|
E|--608-8--8---8-8--------8-8-8-8-8|

  solo riff
G|--------------|
D|64---4-64-----|
A|--654----6542-|
E|--------------|

tabbed by Chris (blue_sincere@hotmail.com)
  development and support by
dmitry ivanov