rock
 
|tablatures   |lyrics   |discussion forums   |more tabs @ XGuitar.com

Jimi Hendrix tabs

Hound Dog bass tab

Hound Dog - Jimi Hendrix

  verse
G|-----------------------------------5-5-----5-5-------------|
D|---5-5-----5-5-----5-5-----5-5--------53------53---5-5-----|
A|------53------53------53------535-5-----5-5-----------53---|
E|5-5-----5-5-----5-5-----5-5---------------------5-5-----5-5|

  chorus
G|------------------------------------------|
D|---5-5------------------------------------|
A|------53/7-77-0765-55-053----------/7--75-|
E|5-5----------------------555555555-------5|

  verse variation
G|------------------------------------------------------------------------------------------|
D|---------------------------3-353---3-353--------------------------------------------------|
A|---3-353---3-353---3-3535-5-----5-5--------3-353---3-353/7-77-0765-55-053----------/7--75-|
E|5-5-----5-5-----5-5---------------------5-5-----5-5----------------------555555555-------5|

  development and support by
dmitry ivanov