rock
 
|tablatures   |lyrics   |discussion forums   |more tabs @ XGuitar.com

Jimi Hendrix tabs

Driving South guitar tab

#----------------------------------PLEASE NOTE---------------------------------#
#This file is the author's own work and represents their interpretation of the #
#song. You may only use this file for private study, scholarship, or research. #
#------------------------------------------------------------------------------#

DRIVING SOUTH--Jimi Hendrix


Intro (8X)
---------------||------10-------------------------------------
----6----------||------10--------10---------------------------
----5----------||--9/11----10----10h12---10----10-------------
----4----------||----------10h12---------10----10-------------
--5---0-0-3-0--||---------------------------12----12-11-10----
---------------||------------------------------------------13-

------------10----10-------10-----------------------------
-10---------10-12-10----------12~~--12-----10-------------
-10h12-10~~----------10h11----------12--10-10-------------
----------------------------------------------12-10-------
----------------------------------------------------------
----------------------------------------------------10-10-

----------10-12(14)-10------------------10---------------
----------10--------10------------10-----10-----12-10----
-12-10-11--------------12-10~~----10h12---11----12-10----
-------------------------------12----------12~~----------
---------------------------------------------------------
---------------------------------------------------------

-------------------------------------------------------------
-------------------------------------------------------------
--------------10---------------------------------------------
-12p10--10-10-10-10-10-10-10----10----10---------------------
--------10-12----12-11-12-11b12-11b12-10------------10-11-12-
-----------------------------------------13-10-10-13---------

-------------------------------------------------------
------------------12-----------------------------------
-10---------------12-10h11--------------11----11-11----
-10-------12~-10--12------12---12----12-12-12-12-12-12-
-------------------------------------------------------
----13-10-------------------10----10-10-10-10-10-------

fuzz on                               bar dive 2 1/2 
---------------------------------------|-------|----
-13(15)-(15)~-\-------12-10-------------------------
---------------10(12)-12-10-------------------------
----------------------------10/12-(0)-(0)-(0)-(0)---
--------------------------------------(0)-----(0)---
----------------------------------------------------

-10-------13------------------15(17)-15~~--15(17)-13----
-13(15)--(15)-------10-------------------------------15-
--------------12(14)----10~~----------------------------
--------------------------------------------------------
--------------------------------------------------------
--------------------------------------------------------

-13(14)----------------------10----10-----------10-------
--------15~-(0)dive--13(15)~----13-10--------10----13-10-
--------------------------------------12(14)-------------
---------------------------------------------------------
---------------------------------------------------------
---------------------------------------------------------

----------------10----10-10-------------------13----13-10----
----------------10h12-12-10-12-10-------------13----13-10h12-
-12(14)-10~~~---------------12-10----10----------------------
----------------------------------12-10h12-------------------
-------------------------------------------------------------
-------------------------------------------10----10----------

-10----10-------------------10-------10--------10----10----
-10h12-10-12-10-------------10h12----10h12-----10h12-10h12-
----------12-10h11-----------------------------------------
-------------------10----12--------------------------------
-----------------------------------------------------------
----------------------10-10-------10-------10--------------

----------------------------------------------------------
-10---10-------------13-----------12-10-------------10----
---12-10----------------12(14)-10-12-10-------------10----
----------12----12---12-----------------12-10-12-12-------
-------------------0--------------------------------------
-------------10-10-------------------------------------10-

-------------------------------------------10-------10-------
-13-------13------13------10-10-----10-----10-10----10-------
-12(14)---12(14)--12(14)--10-12(14)-12(14)----12(14)---------
-------------------------------------------------------------
-------------------------------------------------------------
------10-------10---------------------------------------10---

-------------------------------------------------------10--------
-10~----10-----------------------------10~~---------10----13(15)~
--------10-12-10-----------------------10~~-10-12(14)------------
--------------10-10-----------10/12-12---------------------------
-----------------12-11-10-8--------------------------------------
-----10---------------------10-----------------------------------

-------------------------------------------------15(17)15-13----
-----------12-10--------------------------13/15--------------15-
-12(14)-10-12-10h11----------------------------14---------------
--------------------12----------12~~-12\0-----------------------
----------------------dive--------------------------------------
---------------------------10/12--------------------------------

-(15)~---------------17(19)17-14-----------10-------10----10-
---------15-15-15-15-------------18-15---10---13(15)---13-10-
----14/17-----------------------------/11--------------------
-------------------------------------------------------------
-------------------------------------------------------------
-------------------------------------------------------------

----10--------15(17)-13~-10h12p10--10-------10----10-------------
----10---------------------------13--13(15)----13-10----10h13p10-
-12(14)-13-10----------------------------------------12----------
-----------------------------------------------------------------
-----------------------------------------------------------------
-----------------------------------------------------------------

------------------------------------------------------------
-------------------------10----10-----------------10-10-10--
-12(14)12-10----10-12(14)---12----12(14)12-10---------------
-------------12-------------------------------12~-----------
------------------------------------------------------------
------------------------------------------------------------

triplets 16X
-13p10---12p10---||-14p10--14p10--13p10-14-14-14p10-13p10---10-12-
------12-10----12||------10-----10------10-10------------10-10----
-----------------||-----------------------------------------------
-----------------||-----------------------------------------------
-----------------||-----------------------------------------------
-----------------||-----------------------------------------------

----------10--------10----10---------10----10-10-10-------10-
-------10----13(15)----13-10-13(15)-----13----------13(14)---
-12(14)------------------------------------------------------
-------------------------------------------------------------
-------------------------------------------------------------
-------------------------------------------------------------

-------10---10h13p10----------------------------------------------
-13(14)---13---------13-13p10--13p10------------------------------
-----------------------------12------12(14)12p10-10h12p10---------
----------------------------------------------------------12p10p9-
------------------------------------------------------------------
------------------------------------------------------------------

---------------------------------------------------10----10----------
----------------------------------10---12----------10-13p10-------10~
----------------------------------10---12-10-12(14)---------12(14)---
-9h10h12-10-----------------10h12~---12------------------------------
------------12p11-10---10-12-----------------------------------------
---------------------13----------------------------------------------

-------10-12(14)12-10----13(16)(15)-----10------10-12p10-10-------10-
---/10----------------10------------0-10---10-13------------13(14)---
------------------------------------0--------------------------------
-11------------------------------------------------------------------
---------------------------------------------------------------------
---------------------------------------------------------------------

-13p10-12p10---10----10-------10----10----------10---10-------
-------------12----10--13(15)----13-10-------10---13-10-------
-----------------11--------------------12(14)-----------12(14)
--------------------------------------------------------------
--------------------------------------------------------------
--------------------------------------------------------------

------------------10-------13-15(17)-15-13---15(17)-13-------
----------------10---13/14----------------15-----------15p13-
-12----10-12(14)---------------------------------------------
----12-------------------------------------------------------
-------------------------------------------------------------
-------------------------------------------------------------

-15(17)-13---13------15(17)-13---13-15(17)15-13--13----------
-----------15--15p13-----------15--------------15--14/15-15~-
-------------------------------------------------------------
-------------------------------------------------------------
-------------------------------------------------------------
-------------------------------------------------------------

---------------------------------------10-----------------------
-18(21)(20)-15h18p15---15-18-15--------10-13(15)-13-10----------
--------------------17-------17(19)-\11---------------12(14)-12-
----------------------------------------------------------------
----------------------------------------------------------------
----------------------------------------------------------------

-------------10----13(16)(15)(16)(15)13-10-----------10---10-
-----------10---13-------------------------10-13(15)---13p10-
-12-10~-/11--------------------------------------------------
-------------------------------------------------------------
-------------------------------------------------------------
-------------------------------------------------------------

-----------------------------------10------12-10-------------------
-10h13p10------------------------10---13p10-----10-13-12-10--------
---------12(14)12-10---10(11)-/11---------------------------12(14)-
---------------------12--------------------------------------------
-------------------------------------------------------------------
-------------------------------------------------------------------

---10----10------------------------------------------------------
-10---13-10---10--10--10--10--10--10-----------10--10--10--------
------------13--13--13--13--13--12--10-13(14)~---13--12--12p10---
-----------------------------------------------------------------
-----------------------------------------------------------------
-----------------------------------------------------------------

----------------------------------------------------------------
---10--------------10---10------10------------10----------------
---10h12p10-12p10--10h12--12p10---12p10--10h12--10h12p10--10h12-
-12--------------12--------------------12---------------12------
----------------------------------------------------------------
----------------------------------------------------------------

-------------------------------------------------------------------
-----13--13--------------------------------------------------------
-(14)--12--12(14)12p10--10h12p10--12(14)12-10----------------------
----------------------12--------12------------12-10----------10h12-
---------------------------------------------------12-11p10--------
-----------------------------------------------------------13------

------------------------------------------------------------13-10--
----------10----10---12-------------------12----------10----10-10--
-------10h12-12-10---12-10----------10----12-10-------12(14)-------
-12-12-------------12------12-10-12----12-------12-10--------------
-------------------------------------------------------------------
-------------------------------------------------------------------

                            E7 4X              E  F# G
-13-----13-----10--------||-----------------||--------------------------
-10-----10-----10--------||-----------------||-------0------5-5-3------
-12(14)-12(14)-----------||---7-7-----------||-4--6--0--2/4------4\2-0-
-------------------------||---6-6-----------||-2--4--0-----------------
------------------12\-5/-||-7-----------5---||------------------------
------------------12\----||-0-------7-7---7-||----------------------

 G  B  A                 E  F# G                          G  B  A  E7 
---------------5-3----------------5p3p0-5p3p0------------------------
-------------3----5-3----------0--------------5p3p0-5p3p0------------
----4--2--2/4--------4\--4--6--0--------------------------7--4--2----
-5--4--2-----------------2--4--0--------------------------5--4--2--9-
-5--2--0-----------------------2-----------------------------2--0--7-
-3-----------------------------------------------------------------0-

Drum Break...
           16ths(16X)

-7/--16\-||16-16-16-16||-------12-12------------------------------
---------||15-15-15-15||-10/14----12---------14-12----12----12----
-7/--16\-||16-16-16-16||-------------14-12~~-14-12-14p12----12----
---------||-----------||---------------------------------14-12-14-
---------||-----------||------------------------------------------
---------||-----------||------------------------------------------

-----------------------------------------------------12---12-
--------14-12-------------------------------------12-12-15---
--------14-12----12----14(16)-15-----12-15-----12------------
---12---------14-12-14----------12(14)----12(14)-------------
-14--14------------------------------------------------------
-------------------------------------------------------------

--------12------14-12---15p12h14p12-----12--------------------
------12---15-12-----15------------14p12--------15p12---------
-14(16)-----------------------------------14(16)-----14(16)14-
--------------------------------------------------------------
--------------------------------------------------------------
--------------------------------------------------------------

---------------------------15------------------------------15-15-
--------12-12-12-12---12---12------------------------------12-12-
-12--12-12-12-12-12-14(16)----14p12---12-12-12-12-12-12-14(16)---
---14------------------------------14-12-12-12-12-12-12----------
-----------------------------------------------------------------
-----------------------------------------------------------------

    3X
-||-------15------15------------------------||---------------------
-||-------12------12------------------------||---------------------
-||14p12--14(16)-(16)-12---12-12-12-12-12-12||-14-12---------12-12-
-||-----14--------------14-12-12-12-12-12-12||------14-14-14----14-
-||-----------------------------------------||---------------------
-||-----------------------------------------||---------------------

----------------------------------------------------------------------
----------------------------12--14---12-------------------------------
-12-12----------------------12--14---12--------------12------------12-
----14-14-12h14-14-14-14-14---14---14--14-14-12h14-14---14-14-14-14---
----------------------------------------------------------------------
----------------------------------------------------------------------
                                                 triplet(12X)
-------------------------------------------------||------||---------
------------14------------12---------------12----||15----||----12---
------------14------------12(14)-----------12-12-||14(16)||----12---
-14-14-14-14--14-14-14-14-------14-12-14-14------||------||-14~-----
-------------------------------------------------||------||---------
-------------------------------------------------||------||---------
triplet(12X)
-||-------||----------------------12-12-12-12-------------12-------
-||-------||--------------15--15-----15----12-15(19)(17)~---15(16)-
-||14(17)-||-12~-12-12-12(16)(14)-------------15(19)(17)~----------
-||-------||-------------------------------------------------------
-||-------||-------------------------------------------------------
-||-------||-------------------------------------------------------

-12----------12----------------12-12-12--------------------------
-12-------12----15(19)-15(17)~----15-12----12--------15(19)-15---
---14(16)-12----------------------------14(16)-14-12-------------
-----------------------------------------------------------------
-----------------------------------------------------------------
-----------------------------------------------------------------

--------------------------------------------------------15------
-15(17)~~-15(17)~~-12--------14-12----------------15(17)---12---
-------------------14(16)-12-14-12h13---------------------------
---------------------------------------14\dive/14---------------
----------------------------------------------------------------
----------------------------------------------------------------

---------------------------17(19)17~(19)-17-15h17p15--17(19)-15---
--------12-----------/15-0-------------------------------------17-
-14(16)-12--12~~-12\-----0----------------------------------------
------------------------------------------------------------------
------------------------------------------------------------------
------------------------------------------------------------------

-15---------------------12-------------------------------12----------
---17-17-17-15\12-15(17)--12--------------------12h14-12h14-12-14-12-
----------------------------14(16)-12~-------------------------14-12-
--------------------------------------14\-7/14-----------------------
---------------------------------------------------------------------
----------------------------------------------0----------------------

-----------15------------12----12-12-14------------15--15-----12----12-
-----------15---15----12h14-12h14-12-14-12---------15--15--12h14-12h14-
----------------------------------12-14-12-13--------------------------
-14p12-----14---14-------------------------14-12---14--14--------------
------14-----------12--------------------------------------------------
--------12----12---------------------------------12--------------------

                                 Outro 
-12----------------15---15----------------12-----12--------------------
-12-14-12----------15---15---15---------12--15(17)--15p12--15p12-------
----14-12-12-----------------------14(16)---------------14------14(16)-
----------14-------14---14---14----------------------------------------
-----------------------------------------------------------------------
-------------12-12----12-----------------------------------------------

                 Harm.                              E7
---------------------------------------------------------4-4-4-3-3-2---0
-----------------12---------------------------------3-------------------
-14p12--12h14p12-12---------------------------------1--/4-4-4-3-3-2-0-1-
------14-------------------12------------14~0dive0--2-------------------
----------------------12h14---14\12-10--------------2-------------------
--------------------------------------12------------0-------------------
  development and support by
dmitry ivanov