rock
 
|tablatures   |lyrics   |discussion forums   |more tabs @ XGuitar.com

Jimi Hendrix tabs

Dolly Dagger bass tab

intro/bridge
G|------------------------------------|
D|------------------------------------|
A|7h9-5-7-------------------------5---|
E|--------5---7h9-5-7-2---2-1-0-7-----|

  chorus (x2)
G|---------------------------------------------------------7-----|
D|---------------------7h9-9p7----------------------7-8-9----9p7-|
A|------------5-6-7-----------9p7-5-6-7-------7-8-9-------------9|
E|7--7--7-7-7-------7-------------------5-6-7--------------------|

  verse/solo riff
G|---------------------------------|
D|--------7h9-997------------7-7-9-|
A|------------------------7h9-9----|
E|5h7-775---------5h7-775----------|

the bridge is repeated like this 4 times about 3 minutes
into the song before going the usual way
G|-----------------------|
D|---------------5-5-7p5-|
A|7h9-5-7-----5h7-------7|
E|--------5--------------|
  development and support by
dmitry ivanov