rock
 
|tablatures   |lyrics   |discussion forums   |more tabs @ XGuitar.com

Jimi Hendrix tabs

Can You See Me bass tab

Band: The Jimi Hendrix Experience
Album: Are You Experienced?
Song: Can You See Me
Bassist: Noel Redding
Tabber: ebbboy

Intro:
G --------------------------------------------------------
D -------7--------------------7---------------------------
A -9999----7--9999-77-8-9999-----7--9999-7--7-7-8-9-------
E --------------------------------------------------------


Verse: (x2)
G --------------------------------------------------------
D --------------------------------------------------------
A --------------------------------------------------------
E --7-7-5-7-5-7-5-7-5-7-5-7-5-7-5-------------------------

G --------------------------------------------------------
D -------7--------------------7---------------------------
A -9999----7--9999-77-8-9999-----7--9999-7--7-7-8-9-------
E --------------------------------------------------------

Bridge:

G --------------------------------------------------------
D -----------------7-9-7----------------------------------
A ---------------9-------9---------9----------------------
E --99999999-7-------------9999999------------------------

Solo:

G ------------------------------
D ------------------------------
A ---9-(just keep hittin' it)---
E ------------------------------


Variations:

Towards the end, the bass only does half of the second part of the verse
each time.  Otherwise very simple to pick up.  Good luck.
  development and support by
dmitry ivanov