rock
 
|tablatures   |lyrics   |discussion forums   |more tabs @ XGuitar.com

Jethro Tull tabs

Thick As A Brick guitar tab

thick as a brick 2 
capo: 3rd fret 
emacs tab-learn-tuning 
g-| 
D-| 
Bb| 
F-| 
C-| 
G-| 
  

note: V^V^ is a Strum-strum-Strum-strum in 16ths 

2/4 time 

     Em             C              Em             G           F#m+        rpt 
     V     V^V^     V     V^V^     V     V^V^     V  ^  V  ^  V  ^  V  ^ 
g-|--------0-----|--------0-----|--------0-----|--------------------------|-- 
D-|--------0-----|--------1-----|--------0-----|--------------------------|-- 
Bb|--------0-----|--------0-----|--------0-----|--------------------------|-- 
F-|--------2-----|--------2-----|--------2-----|--------0-----------0-----|-- 
C-|--------2-----|--3-----------|--2-----------|-----2-----2-----0-----0--|-- 
G-|--0-----------|--------------|--------------|--3-----------2-----------|-- 
  

              The   poet and the wise men stand   be----------hind         the gun 

              And   signal for the crack of day   li----------ght          the sun 
  
  

     D                                               Dsus4             D 
     V     V        V     V        V     V        V   V^V^ V^V^     V   V^V^ V^V^ 
g-|--2-----2-----|--2-----2-----|--2-----2-----|--2-h3-----3-----|--3-p2-----2--|-- 
D-|--3-----3-----|--3-----3-----|--3-----3-----|--3--3-----3-----|--3--3-----3--|-- 
Bb|--2-----2-----|--2-----2-----|--2-----2-----|--2--2-----2-----|--2--2-----2--|-- 
F-|--0-----0-----|--0-----0-----|--0-----0-----|--0--0-----0-----|--0--0-----0--|-- 
C-|--------------|--------------|--------------|-----------------|--------------|-- 
G-|--------------|--------------|--------------|-----------------|--------------|-- 
  

     Do      you      be----lieve 
(note: singing is behind the beat) 

and back to the top, i.e. Em, etc. for "in the day..."
  development and support by
dmitry ivanov