rock
 
|tablatures   |lyrics   |discussion forums   |more tabs @ XGuitar.com

Jethro Tull tabs

Thick As A Brick bass tab

Song: Thick as a brick 1
Artist: Jethro Tull
Album: Thick as a brick

Tabbed by Serena Di Iulio  ICQ: 38559568
Member of the Bass Tab Archive Tabbing Army ~
http://www.basstabarchive.com




G||------------------------|-------------------------|
D||----3------0------------|--3----2----0------------|
A||----------------1--1----|-----------------1--1----|
E||------------------------|-------------------------|



-------------------------|-------------------------|
--3----2----0------------|--3----2----0------------|
-----------------1--1----|-----------------1--1----|
-------------------------|-------------------------|



-------------------------|-------------------------|
--3----2----0------------|--3----2----0------------|
-----------------1--1----|-----------------1--1----|
-------------------------|-------------------------|



-------------------------|-------------------------|
--3----2----0------------|--3----2----0------------|
-----------------1--1----|-----------------1--1----|
-------------------------|-------------------------|



-------------------------|-------------------------|
--3----2----0------------|--3----2----0------------|
-----------------1--1----|-----------------1--1----|
-------------------------|-------------------------|



-------------------------|-------------------------|
--3----2----0------------|--3----2----0------------|
-----------------1--1----|-----------------1--1----|
-------------------------|-------------------------|


3x
|--------------------|----------------------||---------------------|
|*-------------------|--3----3----3-5-3----*||---------------------|
|*--1----0-1-3----3--|-----3----3----------*||--3----3----3-5-3----|
|--------------------|----------------------||-----3----3----------|



---------------|--------------|------------------------|
---------------|--------------|------------------------|
--3------------|--------------|-------------------1----|
---------------|--------------|--------------1---------|


 10x
------------------------||------------------------0---------||
------------------------||*-----0--1--0--1--3--1--------0--*||
-------------------1----||*--3-----------------------1-----*||
--------------1---------||----------------------------------||



--------------------------------|--------------------------------|
----1--1----1--1--1-1-1--1-1-1--|----3--3----3--3--3-3-3--3-3-3--|
--------------------------------|--------------------------------|
--------------------------------|--------------------------------|


 
------------------------------------|
--5-5-5-5-5--5-5-5-5-5--3--3--6--6--|
------------------------------------|
------------------------------------|


 
--------------------------------------|
--5-5-5-5-5--5-5-5-5-5--5-5-5--5-5-5--|
--------------------------------------|
--------------------------------------|



--------------------------------|--------------------------------|
----1--1----1--1--1-1-1--1-1-1--|----3--3----3--3--3-3-3--3-3-3--|
--------------------------------|--------------------------------|
--------------------------------|--------------------------------|



----------------------------|----------------------------|
--5--5----3------------5----|--3--3----1------------3----|
---------------3--3---------|---------------1--1---------|
----------------------------|----------------------------|


 
----------------------------|-------------------------------|
----------------------------|-------------------------------|
--6--6----4------------6----|--4--4--4--4--4--4--4--4/-8\---|
---------------4--4---------|-------------------------------|


13x
|------------------------0---------||
|*-----0--1--0--1--3--1--------0--*||
|*--3-----------------------1-----*||
|----------------------------------||



-----------------------------------|
----------------------7------------|
--8--7--8--10--8--10-----10--8--7--|
-----------------------------------|



-----------------------------------|
--7------7--8--7--8--10--8--7------|
-----10------------------------10--|
-----------------------------------|



-----------------------------------|
----------------------7------------|
--8--7--8--10--8--10-----10--8--7--|
-----------------------------------|



-----------------------------------|
--7------7--8--7--8--10--8--7------|
-----10------------------------10--|
-----------------------------------|


 
-------------7------7--9--7---------|
--10--9--10-----10-----------10--9--|
------------------------------------|
------------------------------------|



-----------------------------------|
-----------------------------------|
--7------7--8--7--8--10--8--7------|
-----10------------------------10--|


 
-------------7------7--9--7---------|
--10--9--10-----10-----------10--9--|
------------------------------------|
------------------------------------|



-------------------------------------|---------------------|
--------------------------------7----|---------------------|
--10--10--10--10--10--10--10---------|---------------------|
-------------------------------------|--6------6--6--------|


 
---------------------|-------------------|------------------|
---------------------|-------------------|------------------|
---------------------|--3----------------|------------------|
--1------1--1--------|-------------------|------------------|



------------------------|------------------------|
------------------------|------------------------|
-------------------1----|-------------------1----|
--------------1---------|--------------1---------|



--------------------------------|--------------------------------|
----1--1----1--1--1-1-1--1-1-1--|----3--3----3--3--3-3-3--3-3-3--|
--------------------------------|--------------------------------|
--------------------------------|--------------------------------|


 
------------------------------------|
--5-5-5-5-5--5-5-5-5-5--3--3--6--6--|
------------------------------------|
------------------------------------|


 
--------------------------------------|
--5-5-5-5-5--5-5-5-5-5--5-5-5--5-5-5--|
--------------------------------------|
--------------------------------------|



--------------------------------|--------------------------------|
----1--1----1--1--1-1-1--1-1-1--|----3--3----3--3--3-3-3--3-3-3--|
--------------------------------|--------------------------------|
--------------------------------|--------------------------------|


 
------------------------------------|
--5-5-5-5-5--5-5-5-5-5--3--3--6--6--|
------------------------------------|
------------------------------------|


 
------------------------------------|
--5-5-5-5-5--5-5-5-5-5--3--3--6--6--|
------------------------------------|
------------------------------------|


 
------------------------------------|
--5-5-5-5-5--5-5-5-5-5--3--3--6--6--|
------------------------------------|
------------------------------------|



------------------------------------|----------------------|
--5-5-5-5-5--5-5-5-5-5--3--3--6--6--|----------------------|
------------------------------------|----------------------|
------------------------------------|----------------------|


 
--------------------|---------------------|-------------------|
--------------------|---------------------|-------------------|
--------------------|---------------------|-------------------|
--------------10\---|--3------------10\---|--3----------------|


 
--------------------|--------------------|--------------------|
--5------------3----|--5------------3----|--------------------|
--------------------|--------------------|--1------------1----|
--------------------|--------------------|--------------------|


 
--------------------|--------------------|--------------------|
--------------------|--------------------|--------------------|
--3------------3----|--3------------3----|--5------------5----|
--------------------|--------------------|--------------------|


 
--------------------|----------------------|--------------------|
--3------------3----|--5------3--5----3----|--------------------|
--------------------|----------------------|--1--------3--------|
--------------------|----------------------|--------------------|


 
----------------------|--------------------|--------------------|
----------------------|--5------------3----|--5------------3----|
--5----5----5----5----|--------------------|--------------------|
----------------------|--------------------|--------------------|


 
--------------------|--------------------|--------------------|
--------------------|--------------------|--------------------|
--1------------1----|--3------------3----|--3------------3----|
--------------------|--------------------|--------------------|


 
--------------------|--------------------|----------------------|
--------------------|--3------------3----|--5------3--5----3----|
--5------------5----|--------------------|----------------------|
--------------------|--------------------|----------------------|


 
--------------------|----------------------|------------------|
--------------------|----------------------|------------------|
--1--------3--------|--5----5----5----5----|------------------|
--------------------|----------------------|------------------|


 
--------------------|--------------------|--------------------|
--5------------3----|--5------------5----|--3------------3----|
--------------------|--------------------|--------------------|
--------------------|--------------------|--------------------|


 
--------------------|--------------------|--------------------|
--------------------|--5------------3----|--5------------5----|
--3--------5--------|--------------------|--------------------|
--------------------|--------------------|--------------------|



--------------------|--------------------|-----------------------|
--3-----------------|--------------------|--5----5---5-5----3----|
-----------6--------|--3--------5--------|-----------------------|
--------------------|--------------------|-----------------------|


 
------------------------|--------------------|--------------------|
--5---5-5---5-5----5----|--3-----------------|--------------------|
------------------------|-----------6--------|--3--------5--------|
------------------------|--------------------|--------------------|


 
---------------------|---------------------|----------------------|
--5---3--------------|--3---1--------------|--5------5--3------3--|
----------5----------|----------1----------|----------------------|
---------------------|---------------------|----------------------|



----------------------|--------------------------|
--5------5--3------3--|-----7-----7-----8-----8--|
----------------------|--5-----5-----6-----6-----|
----------------------|--------------------------|



----------------------|----------------------|
----------------------|----------------------|
--3---3--5-6----------|--1---1--3-4----------|
----------------------|----------------------|



---------------------------|---------------------------|
--5---5-5------3--3-----3--|--5---5-5------3--3-----3--|
-----------5--------3-5----|-----------5--------3-5----|
---------------------------|---------------------------|



---------------------------|---------------------------|
--5---5-5------3--3-----3--|--5---5-5------3--3-----3--|
-----------5--------3-5----|-----------5--------3-5----|
---------------------------|---------------------------|


 
---------------------------|---------------5--7-5-------|
--5---5-5------------3---3-|--5---5-5--8----------8-5---|
-----------------3-5---5---|--------------------------8-|
--------------6------------|----------------------------|



-------------------------|---------------------------|
--5---5-5-------------3--|--5---5-5--8---5-----------|
----------------3--5-----|------------------8-5---5--|
--------------6----------|----------------------8----|


 
--------------------------|---------------5-----------|
--5---5-5-----------3--5--|--5---5-5--8------8-5---5--|
----------------3-5-------|----------------------8----|
-------------6------------|---------------------------|



----------------------------|----------------------------|
--5---5-5--8-5--------------|--5---5-5-3------------3----|
----------------8--5---5-8--|------------5------3-5---5--|
---------------------8------|----------------6-----------|


 
----------------------------|---------------------------|
--5---5-5-3------------3----|--5---5-5-3-------------3--|
------------5------3-5---5--|------------5------3-5-----|
----------------6-----------|--------------6------------|


 
--------------------------|----------------5-7-5------|
--5---5-5------------3-5--|--5---5-5----8--------8----|
-----------------3-5------|------------------------8--|
--------------6-----------|---------------------------|


 
---------------------------|----------------------------|
--5---5-5--3------------3--|--5---5-8--5----------------|
-------------5------3-5----|---------------8--5-----5-8-|
------------------6--------|--------------------6-8-----|


 
----------------------------|---------------5-----------|
--5---5-3--------------3-5--|--5---5-5--8------8-5---5--|
-----------5-3-----3-5------|----------------------8----|
----------------6-----------|---------------------------|



-----------------------------|---------------------------|
--5---5-5--8-5---------------|--5---5-5------------------|
----------------8--5-----5-8-|-----------------------5-8-|
---------------------8-6-----|-----------6---8---6-8-----|



---------------------------|---------------------------|
--5---5-5------------------|--5---5-5------------------|
------------------5-8-5-8--|------------------5-8-5-8--|
-----------6---8-----------|-----------6---8-----------|



---------------5--7-5-------|-------------5----------------|
--5---5-5--8----------8-5---|--5---5-5--8----8-5-----------|
--------------------------8-|--------------------8-5---5-8-|
----------------------------|------------------------8-----|


 
------------5-7-7-5--------------|------5-7-7-5---------------|
--5-5-5-5-8---------8-5--5---5-8-|--5-8---------8-5---5-------|
---------------------------8-----|------------------8---------|
---------------------------------|----------------------------|



---------------------------|---------------------------|
--5---5-5------3--3-----3--|--5---5-5------3--3-----3--|
-----------5--------3-5----|-----------5--------3-5----|
---------------------------|---------------------------|



---------------------------|---------------5---7-5-----|
--5---5-5------3--3-----3--|--5---5-5--8-----------8---|
-----------5--------3-5----|-------------------------8-|
---------------------------|---------------------------|


 
---------------------------|--------------------------|
--5---5-5--8---5-----------|--5---3------------3---3--|
------------------8-5---5--|--------------3--5---5----|
----------------------8----|----------6---------------|


 
--------------5--7-5-------|--------------------------|
--5---5---8----------8-5---|--5---5-------3--3-----3--|
-------------------------8-|----------5--------3-5----|
---------------------------|--------------------------|



--------------------------|--------------------------|
--5---5-------3--3-----3--|--5---5-------3--3-----3--|
----------5--------3-5----|----------5--------3-5----|
--------------------------|--------------------------|


 
---------------------------|-------------------|--------------------|
--5---5-5--5-3-------------|-------------------|--------------------|
---------------5----5--3---|-------------------|--------------------|
-------------------------1-|--3----------------|--------------10\---|


 
---------------------|-------------------|--------------------|
---------------------|-------------------|--5------------3----|
---------------------|-------------------|--------------------|
--3------------10\---|--3----------------|--------------------|


 
--------------------|--------------------|--------------------|
--5------------5----|--3------------3----|--------------------|
--------------------|--------------------|--3--------5--------|
--------------------|--------------------|--------------------|


 
--------------------|--------------------|--------------------|
--5------------3----|--5------------5----|--3-----------------|
--------------------|--------------------|-----------6--------|
--------------------|--------------------|--------------------|


 
--------------------|--------------------|--------------------|
--------------------|--5------------3----|--5------------5----|
--3--------5--------|--------------------|--------------------|
--------------------|--------------------|--------------------|



--------------------|--------------------|---------------------|
--3-----------------|--------------------|--5---3--------------|
-----------6--------|--3--------5--------|----------5----------|
--------------------|--------------------|---------------------|



---------------------|----------------------|----------------------|
--3---1--------------|--5------5--3------3--|--5------5--3------3--|
----------1----------|----------------------|----------------------|
---------------------|----------------------|----------------------|


 
--------------------------|----------------------|--------------|
-----7-----7-----8-----8--|----------------------|--------------|
--5-----5-----6-----6-----|--3---3--5-6----------|--1---1--3-4--|
--------------------------|----------------------|--------------|


 
--------------------------|---------------------------|
-----5-6---5-6---5-6-8-6--|--6---5-6---5-6---5-6-8-6--|
--------------------------|---------------------------|
--------------------------|---------------------------|



--7--5--------------------|--------------------------|
--------8--7-----5--7--8--|--7--5--------------------|
--------------8-----------|--------7--5-----5--7--8--|
--------------------------|--------------8-----------|



----------------------|-------------------|
----------------------|-------------------|
--5----3--------------|-------------------|
------------6----4----|--3----------------|


|--3------2------|
|----------------|
|----------------|
|----------------|

 
------------------|--3------2------|------------------|
--5------5-3-2----|----------------|--5------5-3-2----|
------------------|----------------|------------------|
------------------|----------------|------------------|


 
-----4--5--7--5--4--|-----2--4--5--4--2--|--------2--4--2-----|
--7-----------------|--5-----------------|--3--5-----------5--|
--------------------|--------------------|--------------------|
--------------------|--------------------|--------------------|



---------------|----------------|---------------|--------------------|
--2------------|--5-------------|---------------|--------------------|
---------------|---------8------|---------------|----5-7------5-7----|
---------------|----------------|--8------------|--8--------8--------|



--------------------|----------------|---------------|
--------------------|--5------3------|---------------|
----5-7------5-7----|----------------|--3------------|
--8--------8--------|----------------|---------------|


 
--------------------|--------------------|--5------3------|
----2-4------2-4----|----2-4------2-4----|----------------|
--5--------5--------|--5--------5--------|----------------|
--------------------|--------------------|----------------|



---------------|----2-4------2-4----|----2-4------2-4----|
--3------------|--5--------5--------|--5--------5--------|
---------------|--------------------|--------------------|
---------------|--------------------|--------------------|



--5------3------|--2------------|------------7/---7----|
----------------|---------------|--5----5/-------------|
----------------|---------------|----------------------|
----------------|---------------|----------------------|


 
----------------------|----------------------|----------------------|
--5----5--------------|------------7/---7----|------------7----7----|
------------5----5----|--5----5/-------------|--5----5--------------|
----------------------|----------------------|----------------------|


 
------------7/---7----|----------------------|----------------------|
--5----5/-------------|--5----5--------------|------------7/---7----|
----------------------|------------5----5----|--5----5/-------------|
----------------------|----------------------|----------------------|


 
----------------------|----------------------|----------------------|
------------7----7----|------------5/---5----|------------5----5----|
--5----5--------------|--3----3/-------------|--3----3--------------|
----------------------|----------------------|----------------------|


 
----------------------|----------------------|------------5/---5----|
------------7/---7----|------------7----7----|--3----3/-------------|
--5----5/-------------|--5----5--------------|----------------------|
----------------------|----------------------|----------------------|


 
----------------------|------------7/---7----|--5---5---------------|
--3----3--------------|--5----5/-------------|------------7---7-----|
------------3----3----|----------------------|----------------------|
----------------------|----------------------|----------------------|



--------------------------------|--------------------------------|
--0---0-0---0-0-----------------|--------------5--3--------------|
-----------------3--0--------0--|--3---3-3---3-------5--3--------|
-----------------------1--3-----|--------------------------5--3--|



----------------------------|------------------------|
----------------------------|--5--5----5--3--3----3--|
----------------------------|------------------------|
--5---5-5---5-5--3--5--5----|------------------------|



--------------------------------|--------------------------------|
--0---0-0---0-0-----------------|--------------5--3--------------|
-----------------3--0--------0--|--3---3-3---3-------5--3--------|
-----------------------1--3-----|--------------------------5--3--|



----------------------------|------------------------|
----------------------------|--5--5----5--3--3----3--|
----------------------------|------------------------|
--5---5-5---5-5--3--5--5----|------------------------|


 
----------------------|----------------------|----------------------|
------------5/---5----|------------5----5----|------------7/---7----|
--3----3/-------------|--3----3--------------|--5----5/-------------|
----------------------|----------------------|----------------------|


 
----------------------|------------5/---5----|----------------------|
------------7----7----|--3----3/-------------|--3----3--------------|
--5----5--------------|----------------------|------------3----3----|
----------------------|----------------------|----------------------|



------------7/---7----|--5--5----5-------------|
--5----5/-------------|-------------7--7----7--|
----------------------|------------------------|
----------------------|------------------------|



--------------------------------|--------------------------------|
--0---0-0---0-0-----------------|--------------5--3--------------|
-----------------3--0--------0--|--3---3-3---3-------5--3--------|
-----------------------1--3-----|--------------------------5--3--|



----------------------------|------------------------|
----------------------------|--5--5----5--3--3----3--|
----------------------------|------------------------|
--5---5-5---5-5--3--5--5----|------------------------|



--------------------------------|--------------------------------|
--0---0-0---0-0-----------------|--------------5--3--------------|
-----------------3--0--------0--|--3---3-3---3-------5--3--------|
-----------------------1--3-----|--------------------------5--3--|



----------------------------|------------------------|
----------------------------|--5--5----5--3--3----3--|
----------------------------|------------------------|
--5---5-5---5-5--3--5--5----|------------------------|


 
----------------------|----------------------|----------------------|
------------5/---5----|------------5----5----|------------7/---7----|
--3----3/-------------|--3----3--------------|--5----5/-------------|
----------------------|----------------------|----------------------|


 
----------------------|------------5/---5----|----------------------|
------------7----7----|--3----3/-------------|--3----3--------------|
--5----5--------------|----------------------|------------3----3----|
----------------------|----------------------|----------------------|



------------7/---7----|--5--5----5-------------|
--5----5/-------------|-------------7--7----7--|
----------------------|------------------------|
----------------------|------------------------|


 4x
|---------2--0-----------------------|--------------0----2-----||
|*--0---0-------3--0-----------------|------------------------*||
|*--------------------3--0-----------|--3---3-3---3-----------*||
|---------------------------3--1--3--|-------------------------||


 
----------------------|----------------------|----------------------|
------------7/---7----|------------7----7----|------------5/---5----|
--5----5/-------------|--5----5--------------|--3----3/-------------|
----------------------|----------------------|----------------------|


 
----------------------|------------7/---7----|----------------------|
------------5----5----|--5----5/-------------|--5----5--------------|
--3----3--------------|----------------------|------------5----5----|
----------------------|----------------------|----------------------|


 
------------9/---9----|----------------------|----------------------|
--7----7/-------------|--7----7--------------|------------7/---7----|
----------------------|------------7----7----|--5----5/-------------|
----------------------|----------------------|----------------------|


 
----------------------|----------------------|----------------------|
------------7----7----|------------5/---5----|------------5----5----|
--5----5--------------|--3----3/-------------|--3----3--------------|
----------------------|----------------------|----------------------|


 
------------7/---7----|----------------------|------------9/---9----|
--5----5/-------------|--5----5--------------|--7----7/-------------|
----------------------|------------5----5----|----------------------|
----------------------|----------------------|----------------------|


 
----------------------|----------------------|----------------------|
--7----7--------------|----------------------|----------------------|
------------7----7----|--3--3----------------|--6--6------3--3------|
----------------------|------------5--5------|----------------------|



----------------------|----------------------|
----------------------|----------------------|
--4--4----------------|--6----6----6----6----|
------------6--6------|----------------------|



-----------------------------|-------------------------|
--5--5--5--3--3--3-----------|--------4------7/---7----|
--------------------3--------|--5--7-------------------|
-----------------------------|-------------------------|



-----------------------------|-------------------------|
--5--5--5--3--3--3-----------|--------4------7/---7----|
--------------------3--------|--5--7-------------------|
-----------------------------|-------------------------|



--5--5--5--3--3--3-----------|--------4------7/---7----|
--------------------3--------|--5--7-------------------|
-----------------------------|-------------------------|
-----------------------------|-------------------------|


 
--5--5--5--3--3--3-----------|--------4---------4--6------|
--------------------3--------|--5--7---------7------------|
-----------------------------|----------------------------|
-----------------------------|----------------------------|


 


 
-------------------|--------------------|-------------------|
-------------------|---------------4----|-------------------|
-------------------|--------------------|--5----------------|
--7----------------|----------7---------|-------------------|



----------------------|--------------------------|
----------------------|--------------------------|
--3---3---------------|--5---5-5---5-5---5-5---5-|
------------5---5-----|--------------------------|



--------------------------|--------------------------|
--------------------------|--------------------------|
--3---3-3---3-3---3-3---3-|--------------------------|
--------------------------|--5---5-5---5-5---5-5---5-|



------------------------|--------------------------|
--5--5----5--3--3----3--|--------------------------|
------------------------|--5---5-5---5-5---5-5---5-|
------------------------|--------------------------|



--------------------------|--------------------------|
--------------------------|--------------------------|
--3---3-3---3-3---3-3---3-|--------------------------|
--------------------------|--5---5-5---5-5---5-5---5-|



------------------------|----------------------|
--5--5----5--3--3----3--|------------5/---5----|
------------------------|--3----3/-------------|
------------------------|----------------------|


 
----------------------|----------------------|----------------------|
------------5----5----|------------7/---7----|------------7----7----|
--3----3--------------|--5----5/-------------|--5----5--------------|
----------------------|----------------------|----------------------|


 
------------5/---5----|----------------------|------------7/---7----|
--3----3/-------------|--3----3--------------|--5----5/-------------|
----------------------|------------3----3----|----------------------|
----------------------|----------------------|----------------------|



--5---5---------------|---------------5--------|
------------7---7-----|--7----7----8-----------|
----------------------|------------------------|
----------------------|------------------------|


 
---------------5--------|--5----------------------|
--7----7----8-----------|-------8----7------------|
------------------------|-----------------8--8----|
------------------------|-------------------------|



---------------5--------|----5--5--5----5--7--5----------|
--7----7----8-----------|------------------------8--7----|
------------------------|--------------------------------|
------------------------|--------------------------------|


 
----5--5--5----5--7--5----------|----5--5--5----5--7--5-------------|
------------------------8--7----|------------------------8--7----8--|
--------------------------------|-----------------------------------|
--------------------------------|-----------------------------------|



----------------------|---------------5--------|
--7-----5-------------|--7----7----8-----------|
------8----8----------|------------------------|
----------------------|------------------------|


 
---------------5--------|--5----------------------|
--7----7----8-----------|-------8----7------------|
------------------------|-----------------8--8----|
------------------------|-------------------------|



---------------5--------|----5--5--5----5--7--5----------|
--7----7----8-----------|------------------------8--7----|
------------------------|--------------------------------|
------------------------|--------------------------------|


 
----5--5--5----5--7--5----------|----5--5--5----5--7--5-------------|
------------------------8--7----|------------------------8--7----8--|
--------------------------------|-----------------------------------|
--------------------------------|-----------------------------------|


 
----------------------|-----------------------------|
--7-----5-------------|-------------------8---7-5---|
------8----8----------|--8--8-8-8--8-8-8----------6-|
----------------------|-----------------------------|



-------------------5---------|-----------------------------|
-----------------------8-7---|-------------------8---7-5---|
--8--8-8-8--8-8-8----------8-|--8--8-8-8--8-8-8----------6-|
-----------------------------|-----------------------------|



-------------------5---------|-----------------------------|
-----------------------8-7---|-------------------8---7-5---|
--8--8-8-8--8-8-8----------8-|--8--8-8-8--8-8-8----------6-|
-----------------------------|-----------------------------|



-------------------5---------|-----------------------------|
-----------------------8-7---|-------------------8---7-5---|
--8--8-8-8--8-8-8----------8-|--8--8-8-8--8-8-8----------6-|
-----------------------------|-----------------------------|



-------------------5---------|-----------------------------|
-----------------------8-7---|-------------------8---7-5---|
--8--8-8-8--8-8-8----------8-|--8--8-8-8--8-8-8----------6-|
-----------------------------|-----------------------------|



-------------------5---------|-----------------------------|
-----------------------8-7---|-------------------8---7-5---|
--8--8-8-8--8-8-8----------8-|--8--8-8-8--8-8-8----------6-|
-----------------------------|-----------------------------|



-------------------5---------|-------------------------------|
-----------------------8-7---|-------------------------------|
--8--8-8-8--8-8-8----------8-|--6--6-6-6-------------5-----8-|
-----------------------------|------------6-6-6--6-8---8-6---|



-----------------------------5-|-------------------------------|
---------------------5-7-5-----|------------5-5-5--5-7-8-7-5---|
------------8-8-8--8-------8---|--6--6-6-6-------------------5-|
--6--6-6-6---------------------|-------------------------------|



-------------------5---------|-------------------5---------|
-----------------------8-7-5-|-----------------------8-7---|
------------8-8-8------------|------------8-8-8----------8-|
--8--8-8-8-------------------|--8--8-8-8-------------------|



-------------------------------|-----------------------------5-|
-------------------------------|---------------------5-7-5-----|
--6--6-6-6-------------5-----8-|------------8-8-8--8-------8---|
------------6-6-6--6-8---8-6---|--6--6-6-6---------------------|



-------------------------------|-------------------5---------|
------------5-5-5--5-7-8-7-5---|-----------------------8-7-5-|
--6--6-6-6-------------------5-|------------8-8-8------------|
-------------------------------|--8--8-8-8-------------------|



-------------------5---------|-------------------------|
-----------------------8-7---|--5---5-5----5-5--5-5----|
------------8-8-8----------8-|-------------------------|
--8--8-8-8-------------------|-------------------------|



---------------------------|-----------------------------|
----------------3---3---3--|--5---5-5---3-5-5-5-5-5-3----|
--3---3-3-----5---5---5----|--------------------------5--|
---------------------------|-----------------------------|


 
---------------------------|------------------------|
----------------3---3---3--|--5---5-5----5---5-5----|
--3---3-3-----5---5---5----|------------------------|
---------------------------|------------------------|



------------------------|------------------------|
------------------------|------------------------|
--6---6-6----6---6-6----|--3---3-3----3---3-3----|
------------------------|------------------------|



------------------------|-------------------3-5----|
------------------------|--5----------3-5-3-----5--|
--5---5-5----5---5-5----|-----------3--------------|
------------------------|--------------------------|



-----------------------------|-------------------5---------|
-------------------8---7-5---|-----------------------8-7---|
--8--8-8-8--8-8-8----------6-|--8--8-8-8--8-8-8----------8-|
-----------------------------|-----------------------------|



-----------------------------|-------------------5---------|
-------------------8---7-5---|-----------------------8-7---|
--8--8-8-8--8-8-8----------6-|--8--8-8-8--8-8-8----------8-|
-----------------------------|-----------------------------|



-----------------------------|-------------------5---------|
-------------------8---7-5---|-----------------------8-7---|
--8--8-8-8--8-8-8----------6-|--8--8-8-8--8-8-8----------8-|
-----------------------------|-----------------------------|



-----------------------------|-------------------5---------|
-------------------8---7-5---|-----------------------8-7---|
--8--8-8-8--8-8-8----------6-|--8--8-8-8--8-8-8----------8-|
-----------------------------|-----------------------------|



-----------------------------|-------------------5---------|
-------------------8---7-5---|-----------------------8-7---|
--8--8-8-8--8-8-8----------6-|--8--8-8-8--8-8-8----------8-|
-----------------------------|-----------------------------|



-----------------------------|-------------------5---------|
-------------------8---7-5---|-----------------------8-7---|
--8--8-8-8--8-8-8----------6-|--8--8-8-8--8-8-8----------8-|
-----------------------------|-----------------------------|



-----------------------------|-------------------5---------|
-------------------8---7-5---|-----------------------8-7---|
--8--8-8-8--8-8-8----------6-|--8--8-8-8--8-8-8----------8-|
-----------------------------|-----------------------------|



-----------------------------|-------------------5---------|
-------------------8---7-5---|-----------------------8-7---|
--8--8-8-8--8-8-8----------6-|--8--8-8-8--8-8-8----------8-|
-----------------------------|-----------------------------|



-------------------------------|-----------------------------5-|
-------------------------------|---------------------5-7-5-----|
--6--6-6-6-------------5-----8-|------------8-8-8--8-------8---|
------------6-6-6--6-8---8-6---|--6--6-6-6---------------------|



-------------------------------|-------------------5---------|
------------5-5-5--5-7-8-7-5---|-----------------------8-7-5-|
--6--6-6-6-------------------5-|------------8-8-8------------|
-------------------------------|--8--8-8-8-------------------|



-------------------5---------|-------------------------------|
-----------------------8-7---|-------------------------------|
------------8-8-8----------8-|--6--6-6-6-------------5-----8-|
--8--8-8-8-------------------|------------6-6-6--6-8---8-6---|



-----------------------------5-|-------------------------------|
---------------------5-7-5-----|------------5-5-5--5-7-8-7-5---|
------------8-8-8--8-------8---|--6--6-6-6-------------------5-|
--6--6-6-6---------------------|-------------------------------|



-------------------5---------|-------------------5---------|
-----------------------8-7-5-|-----------------------8-7---|
------------8-8-8------------|------------8-8-8----------8-|
--8--8-8-8-------------------|--8--8-8-8-------------------|



-----------------------------|-------------------5---------|
-------------------8---7-5---|-----------------------8-7---|
--8--8-8-8--8-8-8----------6-|--8--8-8-8--8-8-8----------8-|
-----------------------------|-----------------------------|



-----------------------------|-------------------5---------|
-------------------8---7-5---|-----------------------8-7---|
--8--8-8-8--8-8-8----------6-|--8--8-8-8--8-8-8----------8-|
-----------------------------|-----------------------------|



-----------------------------|-------------------5---------|
-------------------8---7-5---|-----------------------8-7---|
--8--8-8-8--8-8-8----------6-|--8--8-8-8--8-8-8----------8-|
-----------------------------|-----------------------------|



-----------------------------|-------------------5---------|
-------------------8---7-5---|-----------------------8-7---|
--8--8-8-8--8-8-8----------6-|--8--8-8-8--8-8-8----------8-|
-----------------------------|-----------------------------|



-----------------------------|-------------------5---------|
-------------------8---7-5---|-----------------------8-7---|
--8--8-8-8--8-8-8----------6-|--8--8-8-8--8-8-8----------8-|
-----------------------------|-----------------------------|


 
--7--7--7--7--7--7------------------|
--------------------5----------5----|
-------------------------3--5-------|
------------------------------------|


 
--7--7--7--7--7--7------------------|-----------------------------|
--------------------5----------5----|-------------------8---7-5---|
-------------------------3--5-------|--8--8-8-8--8-8-8----------6-|
------------------------------------|-----------------------------|


 
-------------------5---------|--7--7--7--7--7--7------------------|
-----------------------8-7---|--------------------5----------5----|
--8--8-8-8--8-8-8----------8-|-------------------------3--5-------|
-----------------------------|------------------------------------|


 
--7--7--7--7--7--7------------------|-----------------------------|
--------------------5----------5----|-------------------8---7-5---|
-------------------------3--5-------|--8--8-8-8--8-8-8----------6-|
------------------------------------|-----------------------------|



-------------------5---------||--------------------------|
-----------------------8-7---||*-------------------------|
--8--8-8-8--8-8-8----------8-||*-------1----3------------|
-----------------------------||---1----------------------|


 13x 
--------------------------||-------------------------||
-------------------------*||-------------------------||
------------1------------*||-------1----3------------||
--1----1------------------||--1----------------------||
  development and support by
dmitry ivanov