rock
 
|tablatures   |lyrics   |discussion forums   |more tabs @ XGuitar.com

Jethro Tull tabs

Teacher bass tab

ARTIST: JETHRO TULL 
SONG: TEACHER 
ALBUM: LIVING IN THE PAST 
TAB BY: JARED 
(XX1134XX@YAHOO.COM) 

VERSElast VERSE before playing CHORUS I 

G---------------------|-------------------||---------------------|---------------| 
D-----------------14/-|------------7--12/-||-----------------14/-|---------------| 
A-12--12------12------|-10------9---------||-12--12------12------|-10--12--3-3-3-| 
E---------12----------|-----10------------||---------12----------|---------------| 

CHORUS Ilast CHORUS I before playing CHORUS II 

G-----------------------||-------------------| 
D-------3-3-3-----------||-------3-3-3-------| 
A-5-5----------5--3-3-3-||-5-5----------3-2/-| 
E-----------------------||-------------------| 

CHORUS II last CHORUS II before playing BREAK 

G------------------------------||-------------------| 
D------------------------------||-------------------| 
A-0-2-2-5-7/--7-7-9--12-12-14/-||-0-2-2-5-7/--7-7-9-| 
E------------------------------||-------------------| 

BREAK 

G---------------------------------------------------|---------------------------------------------| 
D----------------------10--12--10-------------------|--------------------10--12--10---------------| 
A-12--12--12-12-12-12--------------12--10-10-12--10-|-12--12--10-10--12--------------12--10-10-12-| 
E---------------------------------------------------|---------------------------------------------| 

G-------------------12-14-|-14-12-------------------|-----------------------|---------------------| 
D--------12-13--14--------|--------14-13--12--------|--------12-------------|---------------------| 
A-12-15-------------------|-------------------15-12-|-12-15------15--12-----|-12-15-12------------| 
E-------------------------|-------------------------|--------------------15-|-----------15--12-15-| 

G-----------------------------------| REPEAT |------| 
D--------------------10--12--10-----| LAST |------| 
A-12--12--12-12--12--------------12-| BAR|-14/--| 
E-----------------------------------||------| 

LISTEN TO GET THE FEEL OF IT (THAT'S THE OBVIOUS THING TO SAY) 
  development and support by
dmitry ivanov