rock
 
|tablatures   |lyrics   |discussion forums   |more tabs @ XGuitar.com

Jethro Tull tabs

Songs From The Wood bass tab

Jethro Tull

Songs from the Wood

Song by: Ian Anderson


                          0:58
G----------R-----------|-------------------------------------------------------------
D----------E-----------|----5-------------------5-----------------------------------
A----------S-----------|--------5-------------------5-------------------------------
E----------T-----------|------------3--3-3-------------3-3-3----------------------

G------------------------------|------------------------------------------------
D------------------------------|------------------------------------------------
A---------------------------5--|------------------------------------------------
E-------5------3---------------|---1---1------0--000--000--000-0----------------

G-----R----|---------------------------------------|-----------------------------------
D-----E----|---------0-----2--4--3-----------------|-----------------------------------
A-----S----|------------------------------------3--|----2---2-2------------------------
E-----T----|-------------------------------3-------|-----------------5----3--3--3-1----
                                                     X3
G------R-----|-----------------------------------------|----------------------------------------
D------E-----|--------3------3-------------------------|----------------------------------------
A------S-----|---------------------3----3-------3--3---|------------------------3------------5--
E------T-----|-----------------------------------------|-----3------0-----------------3---------
   1:30
G--------------------------------------------------|-----------------------------------------------
D------5-------------------------5---------5/7\5---|-----------------------------------------------
A----------5-------------------------5-------------|-----------------5-----------------------------
E----------------3--3---3--------------------------|----5----3-------------1--1---0-000-000-000-0--
                                                                  X2
G-------------------------|------------------------5--5----3---2-0-----|------------------------
D-------------------------|---3--3-------------------------------------|---3--3-----------------
A--------------0--2--3----|----------3-3-------------------------------|------------------------
E----0--2--3--------------|--------------------------------------------|------------------------

G----------------|-------------|---------------------------------
D----------------|---2-2-2-----|---------------------------------
A----------------|-------------|--0---3--5---5-------------------
E----0--0-2-3-0--|-------------|-----------------3----5----------



G-------------------|--------------------------------|------------------------------------
D-------------------|--------------------------------|----------h-p-----------------------
A-------------------|--------------------0----3---5--|---7----7-9--7---------h------------
E----0-0---2--3-0---|----5----3----------------------|--------------------5---7-----------
                                                                                         X2
G------------------------------------------------------------------------------------------
D-------------------------------------------------------------h----------------------------
A---------------------------------------0----3----5------9--9-11---------h------------h----
E----0--0--2--3-0--------5---3----------------------------------------5---7-------5----7---
    2:12       X4                                 X2                         X4
G-----------------|----R----|------2---------------------|----2---------------------------------
D-----------------|----E----|-----------5--4--2--4--5----|--------5-4-5-4-2-4-5-----------------
A-----------------|----S----|----------------------------|--------------------------------------
E---0-0-2--3-0----|----T----|----------------------------|--------------------------------------

G-------------------------------------------|---------------------------------------------
D-------------------------------------------|---------------------------------------------
A-----3-3---3---3-3---3----0---1-1----------|---3-3---3---3-3----3----0---1-1-------------
E----------------------------------------3--|-----------------------------------------3---
 2:43                                                                                 X2
G-------------------------------------------------------------------------------------
D-------------------------------------------------------------------------------------
A---3---------3-------3---------3------6--5--3-------5---3----------------------------
E--------6-------------------6--------------------6-----------------6---3-------------
                                                                                   X8
G-----------------------------------------------------------------------------------------
D-----------------------------------------------------------------------------------------
A----5---------5------5---------5------8--7---5---------7---5-----------------------------
E----------8----------------8----------------------8-------------------8----5-------------
   3:35
G------------------------|----------------------------|--------------------------------------
D------------------------|----------------------------|--------------0-----------------------
A------5-5---5-7-8-5-----|------7-7--7-9-10-9---------|---3--1--1-1------1-1-3--5-------3~~--
E------------------------|----------------------------|-----------------------------3--------
               4:11
G------R---|------------------------------------------|---------------------------------------
D------E---|------5------------------5----------------|---------------------------------------
A------S---|----------5------------------5------------|---------------5-----------------------
E------T---|--------------3--3--3-----------3--3--3---|-5----3---------1--1--0-000-000-000-0--
                                                              X2
G-------------------------------------------------------------------------------------------
D-----------------------------------------------h-------------------------------------------
A--------------------------------0-3-5------7--7-9----------h-------------------------------
E---0-2-3-0--------5----3---------------------------------5--7------------------------------

                                                                               X2
G--------------------------------------------------------------------------------------
D--------------------------------------------------h-----------------------------------
A-----------------------------------0-3-5-------9-9-11--------h-------h----------------
E---0-0-2-3-0---------5----3--------------------------------5---7---5--7---------------
  4:43
G---------|----------------|--------------------------------------------------------------
D---------|----------------|--------------------------------------------------------------
A------5--|----3---2-3-4---|------0--3---5---------0--0-3---------------------------------
E---------|----------------|---3-----------------3----------------------------------------


Woo, ok this was my first tab. This being one of the coolest Jethro Tull songs,
I wanted to learn how to play it, but alas, no one tabbed it,
so I decided to go ahead and do it myself.

--Jonny

P.S::I know some parts aren't 100% accurate, but its quite close.
Hope you all enjoy one of the best J-tull songs around.
  development and support by
dmitry ivanov