rock
 
|tablatures   |lyrics   |discussion forums   |more tabs @ XGuitar.com

Jethro Tull tabs

Rover guitar chords

Rover 
capo 2 

intro:   Am x 4 
       ---0----------0--0--0--0--- 
       ---1----------1--1--1--1--- 
       ---2----------2--2--2--2--- x 4   Em  C  D 
       ---2----------0--0--0--0--- 
       ---0-------------3--2--0--- 
       --------------------------- 

main verse rhythm: (spacing does not indicate timing) 

------3-----3--2--2-3-2----------0-------3-----3-2-2-3-2-(2)(3)(2)- 
---------------3--------------3------------------3----------------- 
------0-----0--2-------------------------0-----0-2----------------- 
----2-----2----0-------------(0)(2)----2-----2---0----------------- 
--------3---------------0-3-3--------------3------------0-2--2--2-- 
--0----------------------------------0----------------------------- 
  

     C/G             G              F                Em 
The long road is a rainbow and the pot of gold lies there 

     C        D            C/G 
So slip the chain and I'm off again 

        C            D    D           C       main verse rhythm 
You'll find me everywhere 'cause I'm a rover 
  

transcrption sent by 
John Fahey. goog64@yahoo.com
  development and support by
dmitry ivanov