rock
 
|tablatures   |lyrics   |discussion forums   |more tabs @ XGuitar.com

Jethro Tull tabs

Nothing Is Easy bass tab

Song: Nothing is Easy
Artist: Jethro Tull
Album: Stand Up
Tabbed by: Tharcisio Jr (tortellijr@terra.com.br)
http://www.basstabarchive.com/


Intro:x4
G||-------------------------|
D||-----7---7---5-----------|
A||--5----------------8-----|
E||-------------------------|


00:15 and 01:58
G||------------------------|
D||------------------------|
A||--5--55555-55555--------|
E||------------------------|


00:22 and 02:05 x4
G||--7------------------------------------------------------3-----|
D||----7-8-10-----------7--5--7--8-----5-------3-----5------------|
A||-----------7---5--8--------------8------3h5---3h5----3h5-------|
E||---------------------------------------------------------------|


00:52 and02:36
G||----------------------------------------------------|
D||---------------5-3-----5-3-----5-3-----5-3----------|
A||--3h55555555-------5-------5-------5-------5--------|
E||----------------------------------------------------|


01:09 and02:53
G||-------------5-------------5---------------|
D||-7-77777-5-7---7-77777-5-7---7-77777-------|
A||-------------------------------------------|
E||-------------------------------------------|


01:23x4
G||-------5-7--7--------7--7-----------------|
D||-7--77---------5--5-----------------------|
A||------------------------------------------|
E||------------------------------------------|


01:37 and03:00 x4 
G||-7--5-------------7--5----------------------|
D||-------7--7-5---5-------5-------------------|
A||--------------7-----------------------------|
E||--------------------------------------------|


03:15 (First bass solo) 
G||-------------------------------------------|
D||--7-6-5----7-6-5----7----------------------|
A||--------7-5------7-5-----------------------|
E||-------------------------------------------|


03:25 (Second bass solo) 
G||----------------12----12-14---12--------------------------------------------------|
D||-----10h11--14-----14------------14-13-12---12-10--------12--10----------------12-|
A||--12----------------------------------------------10-12-----------12-10-12-12-----|
E||----------------------------------------------------------------------------------|



Final (Listen to the song) 
G||-------------------------------------------|
D||--7----------------------------------------|
A||-------------------------------------------|
E||-------------------------------------------|


h - hammer on 


Any Comments, please E-Mail me (tortellijr@terra.com.br)
  development and support by
dmitry ivanov