rock
 
|tablatures   |lyrics   |discussion forums   |more tabs @ XGuitar.com

Jethro Tull tabs

Locomotive Breath bass tab

Locomotive Breath
By:Jethro Tull
Album:Aqualung
Track No. 10
Tabbed By:Justin Mackovyak


Piano Intro5x
G---||--------------||---------------------------||
D---||--------------||*-------------------------*||
A---||--------------||*--------------5--7/7/7/7/*||
E---||--------------||---7--7--7--7--------------||
 

2x 
G--------------------------||---------------------------||
D--------------------------||*-------------------------*||
A---------------5----------||*--------------5--7/7/7/7/*||
E---7--7--7--7-----7/7/7/7/||---7--7--7--7--------------||
 

 
G------------------|-----------------|-----------------|
D------------------|-----------------|-----------------|
A------------5--5--|-----------------|-----------------|
E---7--7--7--------|--3--3--3--3--3--|--5--5--5--5--5--|
 

 
G------------------|-------------------------||
D------------------|-------------------------||
A------------------|--------------5--7/7/7/7/||
E---7--7--7--7--7--|--7--7--7--7-------------||
 
  development and support by
dmitry ivanov